This is not mine...just adding it to the archive
PARADISE LOST - Elusive cure
album : draconian times
tuning Eb Ab Db Gb Bb eb
| |:this is the rythm
intro:
eb||--------------------------------------------------------||
Bb||------1-----------0------------0-----0-----0-----0------||
Gb||----2---2-------0---0-----------------------------------||
Db||--2-----------0--------------2-----2-----2-----2--------||
Ab||---------------------------2-----2-----2-----2----------||
Eb||--------------------------------------------------------||
| | | | | | | | |
Chorus:
_____________________ ______________________________________
Guitar1 1.| 2.| ||
||--------------------------|-----------------------|--------------------------------------||
||--------------------------|-----------------------|--------------------------------------||
||-----5-----4--------------|-----------------------|--------------------4-----------------||
||--------------7-5------5--|-----5--7--5--4--------|-----5--7--5-4h5p4-----7--5h7p5-4-----||
||--------------------7-----|--7--------------7--7--|--7---------------7-------------------||
||--------------------------|-----------------------|--------------------------------------||
|| |PM. |PM. ||
|| | | | | | | | | | | | | | | | | ||
|| | | ||
||Guitar2 | | ||
||--------------------------|-----------------------|--------------------------------------||
||--------------------------|-----------------------|--------------------------------------||
||-----5--------------------|--4--------------------|--4-----4-----4-----------------------||
||-----5-----2-----------5--|--4-(let ring)---------|--4-----4-----4-----------------------||
||-----3-----2-----------5--|--2--------------------|--2-----2-----2-----------------------||
||-----------0-----------3--|-----------------------|--------------------------------------||
|| | | | | | | | | | | | | | | | | ||
Verse:
Guitar1
||-----------------------------------------------||
||-----------------------------------------------||
||-----4-----------4-----------7/6---------4-----||
||-----------------------------------------------||
||-----------------------------------------------||
||-----------------------------------------------||
|| | | | | | | | ||
|| || x2
||Guitar2 ||
||-----------------------------------------------||
||-----------------------------------------------||
||-----------------4-----------------------------||
||-----2-----------4-----------7/6---------5-----||
||-----2-----------2-----------7/6---------5-----||
||-----0-----------------------5/4---------3-----||
|| | | | | | | | ||
then
Guitar1
||-----------------------------------------------------||
||----5------------5-----------8--7--------5----(7)----|| (7)the second time
||-----------------------------------------------------||
||-----------------------------------------------------||
||-----------------------------------------------------||
||-----------------------------------------------------||
|| | | | | | | | | ||
|| || x2
||Guitar2 ||
||-----------------------------------------------------||
||-----------------------------------------------------||
||-----7---7---7-7-------------9---9---9-9-------------||
||-----7---7---7-7-7---7---7-7-9---9---9-9-9---9---9-9-||
||-----5---5---5-5-7---7---7-7-7---7---7-7-9---9---9-9-||
||-----------------5---5---5-5-------------7---7---7-7-||
|| | | | | | | | | ||
Rythm guitar during the solo:rythm of the chorus then at the end Gb-----
Db--2--
Ab--2--
Eb--0--
song structure
intro x 2
chorus x 1
verse x 1
intro x 2
chorus x 1
verse x 1
intro x 2
chorus x 1
solo
[email protected]





Ваше мнение



Капча