tuning 1 whole step down
ARTIST PARADISE LOST
SONG Dying Freedom
ALBMN ICON
TRANSCRIBED BY Mark Graham
any corrections welcome to
[email protected]
KEYBOARD INTRO
Riff 1
intro
Gather round its the
Dying free the spirits
|--------------------------------------------------|
|-----12-------------------------------------------|
|--9------12-9----11-9---9-------------------------|
|--------------9-------9---------------------------|GREGOR
|--------------------------------------------------|
|--------------------------------------------------|
RIff 1
|--------------------------------------------------------------|
|--listen for strum--------------------------------------------|
|--------------------------------------------------------------|AARON
|---4------2------9--------------------------------------------|
|---2------0------7-----------555--4-4-4--2-2------------------|
|-----------------0-----------333--2-2-2--0-0------------------|
Riff 2
As the withered hand Rains
Constructive powers Degree
Standing at the solmn Born
The ritual explosive Rewarding enemies
|----------------------------|-0-0-0-0-0-0----------------------|
|--5-5-5-5--------5--7-8-7---|-8-8-8-7-7-7--------5-7-8-7-5-----|
|------4-4-------------------|----------------------------------|
|----------5-7-5---------x2--|--------------5-7-5-----------x2--|
|----------------------------|----------------------------------|
|----------------------------|----------------------------------|
Riff 3
Over ruled by a lack
Re-abuse infilteration
|------------------------------------------------------|
|--damped----------------------------------------------|
|--strum-----------------------------------------------|
|------------------------5-5-5--2-----0--------2-------|
|--5-------------3-------3-3-3-----4-----2-4---0-------|
|--3-------------1-------------------------------------|
Riff 4
for all of us to
crying to be free
|-----------------------------------------------------|
|-----------------------------------------------------|
|-----------------------------------------------------|
|---9----11--12--11-----------------------------------|
|---7-----9--10---9-----------------------------------|
|-----------------------------------------------------|
SOLO
|-------------------------------------------------------------|
|--------b--------b-----b-------------------------10----10-12-|
|----11-13-13-11-11-11-11----------9----9-11-9-11----11-------|GREGOR
|-11-----------------------11-9-11---11-----------------------|
|-------------------------------------------------------------|
|-------------------------------------------------------------|
b b b b b
|--b--------------------------------------------------|
|-12--12-----22--22-22-22---22----22p19---------------|
|--------11-----------------------------21------------|
|-----------------------------------------------------|
|-----------------------------------------------------|
|-----------------------------------------------------|
|----------------------------------------------------------------|
|-22--22---------------------------------------------------------|
|-21b-21b--19-21-19----19----------------------19-21-------------|
|-------------------21----21-19-21-19----19-21-------------------|
|-------------------------------------21-------------------------|
|----------------------------------------------------------------|
|--*--------------------------------------------------------------|
|--b--b--b--b--b-b--b--b--b--------------------b------------------|
|-21-21-21-21-21-21-21-21-21-21b19----------9--9-9----4----/7-----|
|----------------------------------21-----------------------------|
|--*hold note bent------------------------------------------------|
|-----------------------------------------------------------------|
|----------------------------------------------------------------|
|--b--b--b---b-15---b-----b--------------------------------------|
|-14-14-14--14-----14-----9--9--7----4~~~~-----------------------|
|----------------------------------------------------------------|
|----------------------------------------------------------------|
|----------------------------------------------------------------|
Chords for solo
|---------------------------------------------------------------|
|---------------------------------------------------------------|
|---------------------------------------------------------------|
|---------------------------------------------------------------|
|---4---4---2--/9---7---7-7--7/9---9-9--9--9-9------------------|
|---2---2---0--/7---5---5-5--5/7---7-7--7--7-7------------------|
AFTER SOLO PLAY RIFF 1 AARON
RIFF
|---------------------------------------------------------------|
|---------------------------------------------------------------|
|------------------------Damped---------------------------------|
|-5--2---4-2----------------------------------------------------|AARON
|------2-----------------2-2-2-2--------------------------------|
|-------------3-0-3------0-0-0-0--------------------------------|
|-----------------------------------------------------------------|
|------------------------8-----7----------------------------------|
|--------------------------9-----9-0-0-9---- clean effect-then-x2-|GREGOR
|----------------------------9------------------------------------|
|-----------------------------------------------------------------|
|-----------------------------------------------------------------|
|---------------------------------------------------------------|
|---------------------------------------------------------------|
|---------------------------------------------------------------|AARON
|--2----DAMP THROUGH ENDING OF SONG-----------------------------|
|--2------------------------------------------------------------|
|--0------------------------------------------------------------|
|-------------------------------------------------------------|
|-8------7---------------8-----7------------------------------|
|---9------9-0-0-9-x2------9-----9-0-0------------------------|GREGOR
|-----9----------------------9---------7--9~~-----------------|
|-----------------------------------------7~~-----------------|
|-------------------------------------------------------------|





Ваше мнение



Капча