From: Саныч(Каян) [email protected]
main riff:
D -----5---6---5---------------------- ||
A -3-3---3---3---3---------6-8-----5-6 ||
E --------------------4-4------3-3---- ||
G -5555555------------
D -5555555-66-55------
A -3333333-66-55------
E ---------44-33------
G --------------------5555555555555555-888-||
D -66666666666666-555-5555555555555555-888-||
A -66666666666666-555-3333333333333333-666-||
E -44444444444444-333----------------------||
G -----------------------------------
D -6666666666666666666-555555555-----
A -6666666666666666666-555555555-----
E -4444444444444444444-333333333-----
G -5~~~---------
D -5~~~--6~~~---
A -3~~~--6~~~---
E -------4~~~---





Ваше мнение



Капча