deadly inner sense

by Paradise Lost
from the fabulous '90 album 'lost paradise'
Copyright (c) (Peaceville) (1990)
Version 1.0 - (23.05.04)
transcribed by Christian Reindel([email protected])
any questions or corrections- e-mail me
Tune down to B (2.5 steps)
~ bend the note normal
~~~~~ bend the note rapidly
Intro
Riff 1 - 2 times
guitar 1
B |--------------------------------------|
F#|--------------------------------------|
D |--------5--4--------------7--6--------|
A |--------3--2--5----6---6--5--4--------|
E |-3---3--------3----4---4--------------|
B |-1---1---------------------------2~~~-|

guitar 2
B |--------------------------------------|
F#|--------------------------------------|
D |--------5--4--------------7--6--------|
A |-3---3--------5~---6---6---------4~~~-|
E |--------------------------------------|
B |--------------------------------------|

Riff 1a - 6 times
B |--------------------------------------|
F#|--------------------------------------|
D |--------5--4--------------7--6--------|
A |--------3--2--5----6---6--5--4--------|
E |-3---3--------3----4---4--------------|
B |-1---1---------------------------2~~~-|
now faster
Riff 2 - 5 times - a sea of twisted shapes...
B |---------------------------------------------------------------|
F#|---------------------------------------------------------------|
D |---------------------------------------------------------------|
A |----------------------5------------------------------8---------|
E |-3--3-3-3---3--3-3-3--3-5-4-5---4--4-4-4---4--4-4-4--6-8-7-8---|
B |-1--1-1-1---1--1-1-1----3-2-3---2--2-2-2---2--2-2-2----6-5-6---|
Riff 3 - 4 times - paralysed from neck down...
B |--------------------------|
F#|--------------------------|
D |--------------------------|
A |-------------6--5---------|
E |-3--7--6--5--4--3--5--4---|
B |-1--5--4--3--------3--2---|

Fill 1
B |-------------|
F#|-------------|
D |-------------|
A |-------------|
E |--3-----6----|
B |--1-----4----|

Riff 4 - 4 times
guitar 1
B |------------------------------|
F#|------------------------------|
D |------------------------------|
A |--2---------------------------|
E |--0-----------3---------------|
B |--------------1------/--------|

guitar 2
B |------------------------------|
F#|--------------1---------------|
D |-----------2-----2--1---------|
A |--------2--------------2------|
E |--0--3------------------------|
B |------------------------------|

Riff 5 - 4 times with guitarsolo
guitar 1
B |------------------------------|
F#|------------------------------|
D |------------------------------|
A |--4---------------------------|
E |--2-----------5---------------|
B |--------------3------/--------|

guitar 2
B |------------------------------|
F#|--------------3---------------|
D |-----------4-----4--3---------|
A |--------4--------------4------|
E |--2--5------------------------|
B |------------------------------|
back to Riff 2 - 5 times - these mindless thoughtless fools...
B |---------------------------------------------------------------|
F#|---------------------------------------------------------------|
D |---------------------------------------------------------------|
A |----------------------5------------------------------8---------|
E |-3--3-3-3---3--3-3-3--3-5-4-5---4--4-4-4---4--4-4-4--6-8-7-8---|
B |-1--1-1-1---1--1-1-1----3-2-3---2--2-2-2---2--2-2-2----6-5-6---|
than Fill 1
B |-------------|
F#|-------------|
D |-------------|
A |-------------|
E |--3-----6----|
B |--1-----4----|

Riff 6 - 1 time
guitar 1 drown in misery
B |-------------------------------------------------------------|
F#|-------------------------------------------------------------|
D |-------------------------------------------------------------|
A |----------7---6---4---5-------------7---6---4----------------|
E |-7---6----5---4---2---3----7---6----5---4---2---6-6-6-5------|
B |-5---4---------------------5---4----------------4-4-4-3------|
p.m. p.m. . . . . p.m.


back to Riff 3 - 4 times with guitarsolo
B |--------------------------|
F#|--------------------------|
D |--------------------------|
A |-------------6--5---------|
E |-3--7--6--5--4--3--5--4---|
B |-1--5--4--3--------3--2---|

back to Riff 6 - 1 time - deadly innersense
than Fill 1
than Riff 4 - 4 times - this place of doom a sacred shrine...
guitar 1
B |------------------------------|
F#|------------------------------|
D |------------------------------|
A |--2---------------------------|
E |--0-----------3---------------|
B |--------------1------/--------|

guitar 2
B |------------------------------|
F#|--------------1---------------|
D |-----------2-----2--1---------|
A |--------2--------------2------|
E |--0--3------------------------|
B |------------------------------|
than Riff 5 - 4 times with guitarsolo
guitar 1
B |------------------------------|
F#|------------------------------|
D |------------------------------|
A |--4---------------------------|
E |--2-----------5---------------|
B |--------------3------/--------|

guitar 2
B |------------------------------|
F#|--------------3---------------|
D |-----------4-----4--3---------|
A |--------4--------------4------|
E |--2--5------------------------|
B |------------------------------|
than back to Riff 2 - 5 times - the deadly inner sense
B |---------------------------------------------------------------|
F#|---------------------------------------------------------------|
D |---------------------------------------------------------------|
A |----------------------5------------------------------8---------|
E |-3--3-3-3---3--3-3-3--3-5-4-5---4--4-4-4---4--4-4-4--6-8-7-8---|
B |-1--1-1-1---1--1-1-1----3-2-3---2--2-2-2---2--2-2-2----6-5-6---|
last chord
B |-------|
F#|-------|
D |-------|
A |-------|
E |---3---|
B |---1---|
end.





Ваше мнение



Капча