breeding fear

by Paradise Lost
from the fabulous '90 album 'lost paradise'
Copyright (c) (Peaceville) (1990)
Version 1.0 - (17.06.04)
transcribed by Christian Reindel([email protected])
any questions or corrections- e-mail me
Tune down to B (2.5 steps)
~ bend the note normal
~~~~~ bend the note rapidly
Intro - very fast
Riff 1 - 4 times - staring down into the depths ...

guitar 1
B |---------------------------------------------------|
F#|---------------------------------------------------|
D |---------------------------------------------------|
A |----------------------------------------------5----|
E |-3--3-3-3--7-6---3--3-3-3--3--------3--3-3-3--3-5--|
B |-1--1-1-1--5-4---1--1-1-1--1--2-3---1--1-1-1----3--|
. . .
end riff 1
B |-----------------------------------|
F#|-----------------------------------|
D |-----------------------------------|
A |-----------------------------------|
E |--3--4-5--3--4-5--3--4-5--3--4-5---|
B |--1--2-3--1--2-3--1--2-3--1--2-3---|
. . . . . . . . . . . . p.m.
Riff 2 - 2 times - my sorrows breeding on my fear (female vocals)
guitar 1
B |-------------------------------------------------------------|
F#|-------------------------------------------------------------|
D |-------------------------------------------------------------|
A |-------------------------------------------------------------|
E |--3---------------8--6--------4---------------5---6---3-----|
B |--1---------------6--4--------2---------------3---4---1-----|
guitar 2
B |-------------------------------------------------------------|
F#|-------------------------------------------------------------|
D |-------------------------------------------------------------|
A |------3----------------------------4-----------5---6---3~----|
E |----------4---3---1--------------------4---3-----------------|
B |--1-------------------4--------2-----------------------------|
Riff 2a - 2 times

guitar 1
B |-------------------------------------------------------------|
F#|-------------------------------------------------------------|
D |-------------------------------------------------------------|
A |-------------------------------------------------------------|
E |--3---------------8--6--------4---------------5---6---3-----|
B |--1---------------6--4--------2---------------3---4---1-----|
guitar 2
B |-------------------------------------------------------------|
F#|-------------------------------------------------------------|
D |-------------------------------------------------------------|
A |------3----------------------------4-----------5---6---3~----|
E |----------4---3---1--------------------4---3-----------------|
B |--1-------------------4--------2-----------------------------|
guitar 3
B |-------------------------------------------------------------|
F#|-------------------------------------------------------------|
D |-----10---------------------------11----------12--13--10~----|
A |---------11--10--10h11-8~-------------11--10-----------------|
E |--8----------------------------9-----------------------------|
B |-------------------------------------------------------------|
Riff 3 - 2 times
guitar 1
B |-------------------------------------------------|
F#|-------------------------------------------------|
D |-------------------------------------------------|
A |--------------------4---4------------------------|
E |--7---7--6----------2---2--5---------------------|
B |--5---5--4-----------------3---------------------|

Riff 3a - 2 times
guitar 1
B |-------------------------------------------------|
F#|-------------------------------------------------|
D |-------------------------------------------------|
A |--------------------4---4------------------------|
E |--7---7--6----------2---2--5---------------------|
B |--5---5--4-----------------3---------------------|

guitar 2
B |-------------------------------------------------|
F#|-----13-12-------------13-12--16--16-15----------|
D |--14-------13~~~----14------------------14-------|
A |-------------------------------------------------|
E |-------------------------------------------------|
B |-------------------------------------------------|
Fill 1
guitar 1
B |-------------------------------------------------|
F#|-------------------------------------------------|
D |-------5--4---7--6--8--7-------------------------|
A |-7--6----------------------8--7------------------|
E |---------------------------------8--7------------|
B |---------------------------------------8--7------|
guitar 2
B |-------------------------------------------------|
F#|-------13-12--15-14-16-15------------------------|
D |-14-13---------------------15-14-----------------|
A |---------------------------------15-14-----------|
E |---------------------------------------15-14-----|
B |-------------------------------------------------|
back to Riff 1 - 4 times - the tombs of 1000 lie near ...
than Riff 4 - 2 times
my body falls to the depths ...
B |---------------------------------|
F#|---------------------------------|
D |---------------------------------|
A |----7------5---------------------|
E |----5------3-----4-----3---------|
B |----5------------2-----1---------|
Riff 5 - 2 times
B |--------------------------------------------------------------|
F#|--------------------------------------------------------------|
D |--------------------------------------------------------------|
A |---------------------------------------------------8-9--------|
E |--7--7-7-7--7-6----4--4-4-4--4-3-------------------6-7--------|
B |--5--5-5-5--5-4----2--2-2-2--2-1---1--1-1-1--1-1-1------------|
. . . . p.m.

back to Riff 4 - 2 times - no visions or solutions ...
than again Riff 5 - 2 times
Riff 6 - 4 times ( on 3rd time starts the guitarsolo)

guitar 1
B |----------------------------------------------------------------|
F#|----------------------------------------------------------------|
D |----------------------------------------------------------------|
A |----------------5-------------6-------------3-------------------|
E |--3-------------3-------------4-------------1-------------------|
B |--1-------------------------------------------------------------|

guitar 2
B |----------------------------------------------------------------|
F#|----------------------------------------------------------------|
D |------------------------------------------------------10~~~-----|
A |----10-11--8~~~---10-11--8~~~------------------10-11-------10~~-|
E |---------------------------------11-10--8~~~--------------------|
B |----------------------------------------------------------------|
guitarsolo continues with Riff 2 - 2 times
back to Riff 2a - 2 times
than Riff 3 - 2 times
than Riff 3a - 2 times
ending chord
B |----------|
F#|----------|
D |----------|
A |----------|
E |----3-----|
B |----1-----|
end.





Ваше мнение



Капча