Хорошая и веселая песня. Играется на пяти аккордах)))
Поехали...)))
Играется она в distortion полуаккордами.
Вступление:
A G D F G
E/---------------------------------------------
B/----12-13-15--13------12-13-13-12/1312------
G/----------------------------------------14---
D/-14----------------14------------------------
A/---------------------------------------------
E/---------------------------------------------
(тоже самое и во время припева)
(3.26-3.34)
E/---------------------------------------------------------------------------------
B/-15-15-15-15/1615-13------------------------------------------------------------
G/---------------------14---14-12---12---------------------------------------------
D/-------------------------------14---14-12-14-12-10-12-10---10--------------------
A/--------------------------------------------------------12----12-10-12-10--10-12-
E/-------------------------------------------------------------------------12------
(Соло по принципу пентитонов)
(3.40-и до конца)
E/--------------------------------------------------
B/--------------------------------------------------
G/-5----------------------------5-7/87-5-----------
D/--7-5-7(повтор несколько раз)----------5----------
A/--------------------------------------------------
E/--------------------------------------------------

A G D F G A
Aware of some, aware of nothing more,
I have no faith i cannot settle scores,
You hope some day, i´ll move out of the dark,
Your wishes fail ´couse i´m nothing...
-Припев-
Slave to it all once again i fear
Slave to it all are the ones most dear
Thrilling you all with my tales not real,
You believe in them time after time....
Awholesome life of which i´m so depreved
I hope and pray That i won´t stay around
too long to stain, ´couse i´m nothing...
-Припев-
Hope someday?
I could be wrong.....





Ваше мнение



Капча