From: [email protected] (Alan Bristow)
PARADISE LOST
AS I DIE
from the ablum SHADES OF GOD
Transcribed by A. Birkett
Typed by A. Bristow
INTRO
||----1---0-----------------1---0------------------------ Play twice
||--3---3---3-------------3---3---3----------------------
||---------------1---0-----------------1---0-------------
||-------------2---2---0-------------2---2---2-----------
||-------------------------------------------------------
||-------------------------------------------------------
BASS
||-------------------------------------------------------
||-------------------------------------------------------
||--00000000---33333333---22222222---55555555------------
||-------------------------------------------------------
RIFF A
Guitar 1 - Dist.
||----------------------------------------------------- Play twice
||-----------------------------------------------------
||----5---4-----------------5---4----------------------
||--7---7---7----5---4----7---7---7----5---7/10--------
||-------------7---7---7-------------7-----5/8---------
||-----------------------------------------------------
Guitar 2 - Dist.
||-----------------------------------------------------
||----------------------------------------------------- Play twice
||-2----------------------5-5-5------------------------
||-2--------5-2-2-2--7\5--5-5-5--5/7--2-2-2--7/10------
||-0--------5-2-2-2--7\5--3-3-3--5/7--2-2-2--5/8-------
||----------3-0-0-0--5\3---------3/5--0-0-0------------
BASS FILL
||-----------------------------------------------------
||---3-2-----------------------------------------------
||-0-----0-5-3-0-3-2-----------------------------------
||-------------------0-5-3-0-3-5-3---------------------
VERSE
||----------------------------------------------------------------------
||----------------------------------------------------------------------
||----------------------------------4-4-4-4-4-4-4-4-2-2-2-2-2-2-2-2-----
||--2-2-2-2-2-2-2-2-2-2-2-2-5-5-5-5-4-4-4-4-4-4-4-4-2-2-2-2-2-2-2-2-----
||--2-2-2-2-2-2-2-2-2-2-2-2-5-5-5-5-2-2-2-2-2-2-2-2-0-0-0-0-0-0-0-0-----
||--0-0-0-0-0-0-0-0-0-0-0-0-3-3-3-3-------------------------------------
||-----15-13----17----15-13---------------------------------------------
||--15-------15----15----------repeat until chorus----------------------
||----------------------------------------------------------------------
||----------------------------------------------------------------------
||----------------------------------------------------------------------
||----------------------------------------------------------------------
RIFF B
Guitar 1 Play twice
||-----------------------------------------------------------|-----------
||-----------------------------------------------------------|-----------
||-----------------------------------------------------------|-pick slide
||-------4-2-----------4-2-----------------------------------|-----x\----
||-2--2------2-0--2-2------2-0--0---3---2/5--0---0---3---2/5-|-7---x\----
||-----------------------------------------------------------|-----x\----
Guitar 2
||-----------------------------------------------------------|-----------
||-----------------------------------------------------------|-pick slide
||-----------------------------------------------------------|-----------
||-----------------------------------------------------------|-----x\----
||------------------------------0---3---2/5--0---0---3---2/5-|-7---x\----
||-0--5--3-----2--0--5--3----2-------------------------------|-----x\----
END
||--------------
||--------------
||--2-----------
||--2-----------
||--0-----------
||--------------
ORDER of riffs etc...
Intro
Riff A
Bass fill
Verse 1
Riff A
Intro
Riff A
Bass fill
Verse 2
Riff A
Riff B
Riff A
End.
*** Lyrics ***
AS I DIE!
Stare, as eyes uphold me
And wait, to see right through
And curse me, the love has crippled you
shadows aren't the night
forgive me as i die
sin, the last diversion
my face will be untouched
dismiss now the anger of a fool
shadows aren't the night
forgive me as i die
taking a chance and take what you can
my soul it has no price
total release is outta harms way
until i can decide
you, punish me
can't you see i'm not real
tears are flowing freely
passing by as i die.....
i think thats all of it, any errors etc... fix em.
ta ta for now.....





Ваше мнение



Капча