This is an old under ground P. Roach song, and it should pop up on there 2nd album. Its in Dropped -D tuning, though it's only used by the first 3 string, only transcript those.
Intro
D----7-7-7-7-3-3-2---- 6x's
A----7-7-7-7-3-3-2----
D----7-7-7-7-3-3-2----
on 7th time
D---3-7-7-7-7-------------
A---3-7-7-7-7--8-8-8-8----
D---3-7-7-7-7-------------
Verse
D---3-3-3-3---2-3--2-3-3-2-2---
A---3-3-3-3---2-3--2-3-3-2-2--- 4x's
D---3-3-3-3---2-3--2-3-3-2-2---
Pre Chorus
D---3-3-3--3-3-3--3-3-3--3-3-X-3-3-2-2-3-3-3
A---3-3-3--3-3-3--3-3-3--3-3-X-3-3-2-2-3-3-3
D---3-3-3--3-3-3--3-3-3--3-3-X-3-3-2-2-3-3-3
Pausing each time for drums
Intro
Verse
Pre Chouus
Interlude
D---3-3-3--------------------
A---3-3-3-------------------- 4X'S
D---3-3-3--------------------
D--7-7-7-7-------------------
A--7-7-7-7--------8-8-8-8-(7-5) 4X'S (7-5) on fourth time only
D--7-7-7-7--------------------
D-8-8-8-8-----12-12-12-12----------------------
A-8-8-8-8-----12-12-12-12------(12-12-12-15-12) 4x's(12-12-12-15-12)on 4th time
D-8-8-8-8-----12-12-12-12----------------------
Do the whole interlude 3x's
If you have any questions E-mail my friend Chris at [email protected]
Thanx and rock on!




Ваше мнение



Капча