/=slide up
=slide down
x=stop the movement of your strings

Its my first tab, but i think its pretty right!

e------------------------------------
b------------------------------------
g------------------------------------ 2 times
d--7--7--7-3-3-2-2--7--7--7-3-3-2-2--
a--7--7--7-3-3-2-2--7--7--7-3-3-2-2--
e--5--5--5-1-1-0-0--5--5--5-1-1-0-0--

e-------------------------------------------
b-------------------------------------------
g-------------------------------------------
d--7--7--7/1515151515--7--7--7--1515151515-- 2 times
a--7--7--7/1515151515--7--7--7--1515151515--
e--5--5--5/1313131313--5--5--5--1313131313--

verse
e---------------------------------------------------
b---------------------------------------------------
g---------------------------------------------------
d-3-3-x-2-3-3-x-3-3-2-2-3-3-x-2-3-3-x-3-3-2-2-3-3 several
a-3-3-x-2-3-3-x-3-3-2-2-3-3-x-2-3-3-x-3-3-2-2-3-3-times
e-1-1-x-0-1-1-x-1-1-0-0-1-1-x-0-1-1-x-1-1-0-0-1-1--

then the first part of the intro again and continue with the verse

Johannes Kresling




Ваше мнение



Капча