DATE: 02/18/03
BAND: Papa Roach
SONG: Time And Time Again
ALBUM: Lovehatetragedy
TUNING: Dropped D (D-A-D-G-B-E)
TABBED BY: Juan Ignacio Insua.
Hi bros.!! This is a great song to play and I've just tabbed it.
It's 100 % right so enjoy it!! Check out my other Papa Roach's tabs:
SHE LOVES ME NOT- LIFE IS A BULLET- WALKIN THRU BARBED WIRE coming soon!!
Intro Then this:
--------
------------- --------
------------- --------
------------- 10-10-14
3-5-6-8-10-13 10-10-14
3-5-6-8-10-13 10-10-14 x5
3-5-6-8-10-13 x3
Riff 1: With wah
---------------------------------------------------------------
---------------------------------------------------------------
---------------------------------------------------------------
---------------------------------------------------------------
--------------------------------6-6-3-3-6-6-3-3-6-6-3-3-6-6-3-3
6-6-3-3-6-6-3-3-6-6-3-3-6-6-3-3--------------------------------
Then:
-----------
-----------
-----------
-x-5-x-6---
-x-5-x-6---
-x-5-x-6---
Chorus
The chorus is played 3 times in the whole song.
1st and 2nd time
----------------------------------------------
--------------------------10----13--15--6----4
9----12--14--5----7--------9----12--14--5----3
7----10--12--3----5--------7----10--12--3----1
7----10--12--3----5--------7----10--12--3----1
7----10--12--3----5--------7----10--12--3----1
3rd time
----------------------------------------------
--------------------------10----13--15--6----8
9----12--14--5----7--------9----12--14--5----7
7----10--12--3----5--------7----10--12--3----5
7----10--12--3----5--------7----10--12--3----5
7----10--12--3----5--------7----10--12--3----5
----------------------------------------------------------
--------------------------10----13--15--6-----------------
9----12--14--5----7--------9----12--14--5-----------------
7----10--12--3----5--------7----10--12--3----1-1-1-1-1-1-1
7----10--12--3----5--------7----10--12--3----1-1-1-1-1-1-1
7----10--12--3----5--------7----10--12--3----1-1-1-1-1-1-1
Riff 2
----------------------------------------------------------------------------------
----------------------------------------------------------------------------------
----------------------------------------------------------------------------------
3-3--3-3--3-3-3----6-6--6-6--10-10-10----11-11--11-11--11-11-11----1-1--1-1--1-1-1
3-3--3-3--3-3-3----6-6--6-6--10-10-10----11-11--11-11--11-11-11----1-1--1-1--1-1-1
3-3--3-3--3-3-3----6-6--6-6--10-10-10----11-11--11-11--11-11-11----1-1--1-1--1-1-1 x2
Order:
* Intro
* Riff 1 x2
* Chorus
* Riff 1
* Chorus
* Riff 2
* Intro
* Chorus.
That's all!! Be careful and respect all the spaces.
Hope you like it.




Ваше мнение



Капча