Dropped-D tuning (DADGBE) low-to-high
tab by carlos this is the right way 2 play it i saw them play live any comments e-mail me
[email protected]

[email protected]-------------
------------------------------------------------------------------------------
------------------------------------------------------------------------------
-2-2---2-0-2-2---2-0-2-2---0-3-3----3-0-3-3----3-0-3-3---0--------------------
-2-2---2-0-2-2---2-0-2-2---0-3-3----3-0-3-3----3-0-3-3---0--------------------
-2-2---2-0-2-2---2-0-2-2---0-3-3----3-0-3-3----3-0-3-3---0--------------------
Intro and Fill Thingy

------------------------------------------------------------------------------
------------------------------------------------------------------------------
------------------------------------------------------------------------------
-2-2-2--2-2-2--2-2-2--2-2-0--3-3-3--3-3-3--3-3-3--3-3-0-----------------------
-2-2-2--2-2-2--2-2-2--2-2-0--3-3-3--3-3-3--3-3-3--3-3-0-----------------------
-2-2-2--2-2-2--2-2-2--2-2-0--3-3-3--3-3-3--3-3-3--3-3-0-----------------------
Verse and Fill Pt. 2

------------------------------------------------------------------------------
------------------------------------------------------------------------------
------------------------------------------------------------------------------
-9-9-9-9-9-9-9-9-9-9-9-9-9-9-9-9-10-10-10-10-10-10-10-10-10-10-10-10-10-10----
-9-9-9-9-9-9-9-9-9-9-9-9-9-9-9-9-10-10-10-10-10-10-10-10-10-10-10-10-10-10----
-9-9-9-9-9-9-9-9-9-9-9-9-9-9-9-9-10-10-10-10-10-10-10-10-10-10-10-10-10-10----
Chorus pt.1

------------------------------------------------------------------------------
------------------------------------------------------------------------------
------------------------------------------------------------------------------
-10-10-9-9-9-9-9-9-9-9-9-9-9-9-9-9-9-9-6-6-6-6-6-6-6-6-6-6-6-6-6-6-6-6--------
-10-10-9-9-9-9-9-9-9-9-9-9-9-9-9-9-9-9-6-6-6-6-6-6-6-6-6-6-6-6-6-6-6-6--------
-10-10-9-9-9-9-9-9-9-9-9-9-9-9-9-9-9-9-6-6-6-6-6-6-6-6-6-6-6-6-6-6-6-6--------


------------------------------------------------------------------------------
------------------------------------------------------------------------------
-----5^----5^----5^-----------5^----5^----5^----------------------------------
-2-2---2-2---2-2---2-2-0--3-3---3-3---3-3---3-3-0-----------------------------
-2-2---2-2---2-2---2-2-0--3-3---3-3---3-3---3-3-0-----------------------------
-2-2---2-2---2-2---2-2-0--3-3---3-3---3-3---3-3-0-----------------------------


------------------------------------------------------------------------------
------------------------------------------------------------------------------
------------------------------------------------------------------------------
------------------------------------------------------------------------------
-------5^----------------5^---------------------------------------------------
-2^-2^----2^-2^-5^-3^-3^----3^-3^-5^------------------------------------------
Bridge

------------------------------------------------------------------------------
------------------------------------------------------------------------------
-----------------------------------------------------------------10-10-10-10--
-8-8-8-8-8-8-8-8-8-8-8-8-8-8-8-8-8-8-8-8-8-8-8-8-8-8-8-8-8-8-8-8-10-10-10-10--
-8-8-8-8-8-8-8-8-8-8-8-8-8-8-8-8-6-6-6-6-6-6-6-6-6-6-6-6-6-6-6-6-8--8--8--8---
-8-8-8-8-8-8-8-8-8-8-8-8-8-8-8-8-8-8-8-8-8-8-8-8-8-8-8-8-8-8-8-8--------------
Outro

------------------------------------------------------------------------------
------------------------------------------------------------------------------
-10-10-10-10-10-10-10-10-10-----10-10-10-10-10-10-10-10-10-10-10-10----10-10--
-10-10-10-10-10-10-10-10-10-----10-10-10-10-10-10-10-10-10-10-10-10----10-10--
-8--8--8--8--8--8--8--8--8------8--8--8--8--8--8--8--8--8--8--8--8-----8--8---
------------------------------------------------------------------------------


------------------------------------------------------------------------------
------------------------------------------------------------------------------
-10-10-10-10-10-10-10-10-10-10-10---------------------------------------------
-10-10-10-10-10-10-10-10-10-10-10----3-3-3-3-3-3-3-3-3-3-3-3-3----------------
-8--8--8--8--8--8--8--8--8--8--8-----3-3-3-3-3-3-3-3-3-3-3-3-3----------------
-------------------------------------3-3-3-3-3-3-3-3-3-3-3-3-3----------------




Ваше мнение



Капча