This is one of the best songs off infest and easy to play, there were no other tabs for it
so here you go:
Intro:
e|----------------------------------------------------------
B|----------------------------------------------------------
G|-------------10------9------------------------------------
D|-10----7-----7-------7------------------------------------
A|-8-x8--7-x8--7--x8---7-x8--------x2-----------------------
E|-10----7-----7-------7------------------------------------
Verse:
e|----------------------------------------------------------
B|----------------------------------------------------------
G|----9------7------------------10--------------------------
D|----x-x16--x-x16----7---------x---x15---------------------
A|----7------5--------7--x16----8---------------------------
E|--------------------7-------------------------------------
They'll stab you in the back.......
e|----------------------------------------------------------
B|----------------------------------------------------------
G|----------------------------------------------------------
D|----7/8--8-8-8--------------------------------------------
A|----7/8--8-8-8-----x2-------------------------------------
E|----7/8--8-8-8--------------------------------------------
Repeat verse.
One for your money.....
e|----------------------------------------------------------
B|----------------------------------------------------------
G|----------------------------------------------------------
D|-7-----------7/8--8-8-8-----------------------------------
A|-7--x16------7/8--8-8-8--x2-------------------------------
E|-7-----------7/8--8-8-8-----------------------------------
Chorus:
e|----------------------------------------------------------
B|----------------------------------------------------------
G|----------------------------------------------------------
D|--7-7-7--7-7---0-3-3-3--3-3---3-0-0-0--0-0----2-2---2-2---
A|--7-7-7--7-7---0-3-3-3--3-3---3-0-0-0--0-0----2-2---2-2-x2
E|--7-7-7--7-7---0-3-3-3--3-3---3-0-0-0--0-0--3-2-2-3-2-2---
Silence until '' its kinda funny....''
Verse until:
Now tell me, tell me....
e|----------------------------------------------------------
B|----------------------------------------------------------
G|----------------------------------------------------------
D|----7-----------5-7----8------5-5-------------------------
A|----7-----------5-7----8------5-5-------------------------
E|----7-----------5-7----8------5-5-------------------------
One for your money........
e|----------------------------------------------------------
B|----------------------------------------------------------
G|----9-----------------------------------------------------
D|----x-x16-----7/8---8-8-8---------------------------------
A|----7---------7/8---8-8-8---x4----------------------------
E|--------------7/8---8-8-8---------------------------------
Chorus
Intro x4
Then:
e|----------------------------------------------------------
B|----------------------------------------------------------
G|----------------------------------------------------------
D|----77---77---00---00---88---88---22---32-----------------
A|----77---77---00---00---88---88---22---32-----------------
E|----77---77---00---00---88---88---22---32-----------------
Last chorus
e|----------------------------------------------------------
B|----------------------------------------------------------
G|-------------------------7-----7---#7/9--109#-----------
D|----77---77---00---00----x-----x----x-x--x--x--x4---------
A|----77---77---00---00----5-----5----5/7--8-7-------------
E|----77---77---00---00-------------------------------------
#on fourth time miss out and instead play:
e|----------------------------------------------------------
B|----------------------------------------------------------
G|----------------------------------------------------------
D|---32----------7---------------7---7----------------------
A|---32-x12------7---------------7---7----------------------
E|---32----------7---------------7---7----------------------




Ваше мнение



Капча