on Drop D tuning

------------------------------------------------------------------------------
------------------------------------------------------------------------------
------------------------------------------------------------------------------
-x-7-7--x-3-3--x-0-0--x-2-2-xxx-2-2-xxx---------------------------------------
-x-7-7--x-3-3--x-0-0--x-2-2-xxx-2-2-xxx---------------------------------------
-x-7-7--x-3-3--x-0-0--x-2-2-xxx-2-2-xxx---------------------------------------
Intro
------------------------------------------------------------------------------
------------------------------------------------------------------------------
------------------------------------------------------------------------------
-x-7-7--x-3-3--x-0-0--x-2-2-xxx-5-5-xxx---------------------------------------
-x-7-7--x-3-3--x-0-0--x-2-2-xxx-3-3-xxx---------------------------------------
-x-7-7--x-3-3--x-0-0--x-2-2-xxx-0-0-xxx---------------------------------------
------------------------------------------------------------------------------
------------------------------------------------------------------------------
------------------------------------------------------------------------------
-x-7-7--x-3-3--x-0-0--x-2-2-xxx-2-2-xxx---------------------------------------
-x-7-7--x-3-3--x-0-0--x-2-2-xxx-2-2-xxx---------------------------------------
-x-7-7--x-3-3--x-0-0--x-2-2-xxx-2-2-xxx---------------------------------------
------------------------------------------------------------------------------
------------------------------------------------------------------------------
------------------------------------------------------------------------------
-7-7----------xxx-3-3----------xxx-0-0----------xxx-2-2----------xxx----------
-7-7---8p7----xxx-3-3---8p7----xxx-0-0---8p7----xxx-2-2---8p7----xxx----------
-7-7-x-----10-xxx-3-3-x-----10-xxx-0-0-x-----10-xxx-2-2-x-----10-xxx----------
------------------------------------------------------------------------------
------------------------------------------------------------------------------
------------------------------------------------------------------------------
-3-3-3--3--3-5-5-5--5--5-7-7-7--7--7-7-7-7--7---------------------------------
-3-3-3--3--3-5-5-5--5--5-7-7-7--7--7-7-7-7--7---------------------------------
-3-3-3--3--3-5-5-5--5--5-7-7-7--7--7-7-7-7--7---------------------------------
------------------------------------------------------------------------------
------------------------------------------------------------------------------
------------------------------------------------------------------------------
-3-3-3--3--3-5-5-5--5--5-7-7-7--7--7-7-7-7--7---------------------------------
-3-3-3--3--3-5-5-5--5--5-7-7-7--7--7-7-7-7--7---------------------------------
-3-3-3--3--3-5-5-5--5--5-7-7-7--7--7-7-7-7--7---------------------------------
------------------------------------------------------------------------------
------------------------------------------------------------------------------
------------------------------------------------------------------------------
-x-7-7--x-3-3--x-0-0--x-2-2-xxx-2-2-xxx---------------------------------------
-x-7-7--x-3-3--x-0-0--x-2-2-xxx-2-2-xxx---------------------------------------
-x-7-7--x-3-3--x-0-0--x-2-2-xxx-2-2-xxx---------------------------------------
------------------------------------------------------------------------------
------------------------------------------------------------------------------
------------------------------------------------------------------------------
-x-7-7--x-3-3--x-0-0--x-2-2-xxx-5-5-xxx---------------------------------------
-x-7-7--x-3-3--x-0-0--x-2-2-xxx-3-3-xxx---------------------------------------
-x-7-7--x-3-3--x-0-0--x-2-2-xxx-0-0-xxx---------------------------------------
------------------------------------------------------------------------------
------------------------------------------------------------------------------
------------------------------------------------------------------------------
-x-7-7--x-3-3--x-0-0--x-2-2-xxx-2-2-xxx---------------------------------------
-x-7-7--x-3-3--x-0-0--x-2-2-xxx-2-2-xxx---------------------------------------
-x-7-7--x-3-3--x-0-0--x-2-2-xxx-2-2-xxx---------------------------------------
------------------------------------------------------------------------------
------------------------------------------------------------------------------
------------------------------------------------------------------------------
-7-7----------xxx-3-3----------xxx-0-0----------xxx-2-2----------xxx----------
-7-7---8p7----xxx-3-3---8p7----xxx-0-0---8p7----xxx-2-2---8p7----xxx----------
-7-7-x-----10-xxx-3-3-x-----10-xxx-0-0-x-----10-xxx-2-2-x-----10-xxx----------
------------------------------------------------------------------------------
------------------------------------------------------------------------------
------------------------------------------------------------------------------
-3-3-3--3--3-5-5-5--5--5-7-7-7--7--7-7-7-7--7---------------------------------
-3-3-3--3--3-5-5-5--5--5-7-7-7--7--7-7-7-7--7---------------------------------
-3-3-3--3--3-5-5-5--5--5-7-7-7--7--7-7-7-7--7---------------------------------
------------------------------------------------------------------------------
------------------------------------------------------------------------------
------------------------------------------------------------------------------
-3-3-3--3--3-5-5-5--5--5-7-7-7--7--7-7-7-7--7---------------------------------
-3-3-3--3--3-5-5-5--5--5-7-7-7--7--7-7-7-7--7---------------------------------
-3-3-3--3--3-5-5-5--5--5-7-7-7--7--7-7-7-7--7---------------------------------
------------------------------------------------------------------------------
------------------------------------------------------------------------------
-------------------------------------9-----------9----------------------------
-10-10-10--10--10-5-5-5--5--5-7-7-7--9--7-7-7-7--9----------------------------
-10-10-10--10--10-5-5-5--5--5-7-7-7--7--7-7-7-7--7----------------------------
-10-10-10--10--10-5-5-5--5--5-7-7-7--7--7-7-7-7--7----------------------------
------------------------------------------------------------------------------
------------------------------------------------------------------------------
-------------------------------------9-----------9----------------------------
-10-10-10--10--10-5-5-5--5--5-7-7-7--9--7-7-7-7--9----------------------------
-10-10-10--10--10-5-5-5--5--5-7-7-7--7--7-7-7-7--7----------------------------
-10-10-10--10--10-5-5-5--5--5-7-7-7--7--7-7-7-7--7----------------------------
------------------------------------------------------------------------------
------------------------------------------------------------------------------
------------------------------------------------------------------------------
-x-7-7--x-3-3--x-0-0--x-2-2-xxx-2-2-xxx---------------------------------------
-x-7-7--x-3-3--x-0-0--x-2-2-xxx-2-2-xxx---------------------------------------
-x-7-7--x-3-3--x-0-0--x-2-2-xxx-2-2-xxx---------------------------------------
------------------------------------------------------------------------------
------------------------------------------------------------------------------
------------------------------------------------------------------------------
-x-7-7--x-3-3--x-0-0--x-2-2-xxx-5-5-xxx---------------------------------------
-x-7-7--x-3-3--x-0-0--x-2-2-xxx-3-3-xxx---------------------------------------
-x-7-7--x-3-3--x-0-0--x-2-2-xxx-0-0-xxx---------------------------------------
------------------------------------------------------------------------------
------------------------------------------------------------------------------
------------------------------------------------------------------------------
-x-7-7--x-3-3--x-0-0--x-2-2-xxx-2-2-xxx---------------------------------------
-x-7-7--x-3-3--x-0-0--x-2-2-xxx-2-2-xxx---------------------------------------
-x-7-7--x-3-3--x-0-0--x-2-2-xxx-2-2-xxx---------------------------------------
------------------------------------------------------------------------------
------------------------------------------------------------------------------
------------------------------------------------------------------------------
-7-7----------xxx-3-3----------xxx-0-0----------xxx-2-2----------xxx----------
-7-7---8p7----xxx-3-3---8p7----xxx-0-0---8p7----xxx-2-2---8p7----xxx----------
-7-7-x-----10-xxx-3-3-x-----10-xxx-0-0-x-----10-xxx-2-2-x-----10-xxx----------
------------------------------------------------------------------------------
------------------------------------------------------------------------------
------------------------------------------------------------------------------
-3-3-3--3--3-5-5-5--5--5-7-7-7--7--7-7-7-7--7---------------------------------
-3-3-3--3--3-5-5-5--5--5-7-7-7--7--7-7-7-7--7---------------------------------
-3-3-3--3--3-5-5-5--5--5-7-7-7--7--7-7-7-7--7---------------------------------
------------------------------------------------------------------------------
------------------------------------------------------------------------------
------------------------------------------------------------------------------
-3-3-3--3--3-5-5-5--5--5-7-7-7--7--7-7-7-7--7---------------------------------
-3-3-3--3--3-5-5-5--5--5-7-7-7--7--7-7-7-7--7---------------------------------
-3-3-3--3--3-5-5-5--5--5-7-7-7--7--7-7-7-7--7---------------------------------
------------------------------------------------------------------------------
------------------------------------------------------------------------------
------------------------------------------------------------------------------
-3-3-3-3-3-3-3-3---5-5-5-5-5-5-5-5---7-7-7-7-7-7-7-7--------------------------
-3-3-3-3-3-3-3-3---5-5-5-5-5-5-5-5---7-7-7-7-7-7-7-7--------------------------
-3-3-3-3-3-3-3-3---5-5-5-5-5-5-5-5---7-7-7-7-7-7-7-7--------------------------
fast part
------------------------------------------------------------------------------
------------------------------------------------------------------------------
-------------------------------------------------------------------------------
-3-3-3--3--0-0-0--0---2-2-2-2-2-2-2-2-2-2-2-2-2-2-2-2-2-2-2-2-2-2-2-----------
-3-3-3--3--0-0-0--0---2-2-2-2-2-2-2-2-2-2-2-2-2-2-2-2-2-2-2-2-2-2-2-----------
-3-3-3--3--0-0-0--0---2-2-2-2-2-2-2-2-2-2-2-2-2-2-2-2-2-2-2-2-2-2-2-----------
------------Palm Mute------------------------
------------------------------------------------------------------------------
------------------------------------------------------------------------------
--------5-----------7-----9-9-9-9-9-------------------------------------------
-3-3-3--5--3-5-5-5--7--5--9-9-9-9-9-------------------------------------------
-3-3-3--3--3-5-5-5--5--5--7-7-7-7-7-------------------------------------------
-3-3-3--3--3-5-5-5--5--5--7-7-7-7-7-------------------------------------------
Ending (continued) ^ Let it Ring out.




Ваше мнение



Капча