Papa Roach
Revenge
Standard Tuning
INTRO AND CHORUS:
E|----------------------|
B|----------------------|
G|--99---4-----55---4---|
D|--99---4-----55---4---|
A|--77---2-----33---2---|
E|----------------------|
FILL 1:
E|----------------------|
B|----------------------|
G|--54--44--repeat-4x---|
D|--54--44--------------|
A|--32--22--------------|
E|----------------------|
VERSE 1 & 2:
E|-------------------|
B|-------------------|
G|-------------------|
D|---4-2-4---4---4---|
A|-2-------5---4-----|
E|-------------------|
FILL 2:
E|--------|---------------------------------------------|
B|--------|---------------------------------------------|
G|-444999-|-54--4--44--4----54--4--44--449- Repeat 2x --|
D|-444999-|-54--4--44--4----54--4--44--449--------------|
A|-222777-|-32--2--22--2----32--2--22--227--------------|
E|--------|---------------------------------------------|
VERSE 3:
E|---------------------------------------------------|
B|-----------12~~-------------------------12~~-------|
G|-/9~~--9-10------10~~-----9h10p9~~--9-10------10~~-|
D|---------------------------------------------------|
A|---------------------------------------------------|
E|---------------------------------------------------|
FILL 3:
E|-------------------------|
B|-------------------------|
G|----4--22-4-----4-----4--|
D|-22-4--22-4--55-4--44-4--|
A|-22----------55----44----|
E|-------------------------|
FILL 4:
E|--------------------------------------------|
B|--------------------------------------------|
G|-444--222-----4-22-4----4----4---repeat-4x--|
D|-444--222--22-4-22-4-55-4-44-4--------------|
A|-----------22--------55---44----------------|
E|--------------------------------------------|
OUTRO:
E|---------------------|
B|---7--5--7---7---7---|
G|-4---------7---6-----|
D|---------------------|
A|---------------------|
E|---------------------|




Ваше мнение



Капча