A pre-Infest tab by PapaKoRn
Enjoy
E------------------------------------------------------------------
B------------------------------------------------------------------ (x)-Mute
G------------------------------------------------------------------
D----------5-4--44-------------5-4--44-----------------------------
A--2-2-(2)------22------2-2-(2)-----22-----------------------------
E------------------------------------------------------------------
E------------------------------------------------------------------
B------------------------------------------------------------------ (x)-letRing
G------------------------------------------------------------------ just drag da
D--4-4--5--4-4--5--4-4--5--4-4--5--4-4--5----4x4x4----------------- Finger to 5
A--2-2-(2)-2-2-(2)-2-2-(2)-2-2-(2)-2-2-(2)---2x2x2-----------------
E------------------------------------------------------------------

E------------------------------------------------------------------
B------------------------------------------------------------------
G------------------------------------------------------------------
D------------------------------------------------------------------
A---9-(9)-let it ring--10-10-let it ring---------------------------
E---7-(7)-let it ring---8--8-let it ring---------------------------

E|-----------------------------------------------------------------
B------------------------------------------------------------------ (x)-muted
G------------------------------------------------------------------
D------------------------------------------------------------------
A------9-10-9-(0)-----9-10-9-10-(0)--9-10-9-(0)--------------------
E--(7)-----------(0)-8-------------7-----------(0)-8---------------

E------------------------------------------------------------------
B------------------------------------------------------------------
G------------------------------------------------------------------
D------9-10-9---------9-10-9-10------9-10-9------------------------
A------9-10-9-(0)-----9-10-9-10-(0)--9-10-9-(0)--------------------
E--(7)-----------(0)-8-------------7-----------(0)-8---------------
E------------------------------------------------------------------
G------------------------------------------------------------------
G------------------------------------------------------------------
D--------12-11-9-11------------------------------------------------
A---9-12-10-9--7--9------------------------------------------------
E---7-10-----------------------------------------------------------
This is my first Tab by the way, so please e-mail
Me to bitch, congrat and correct me @
[email protected]




Ваше мнение



Капча