Author/Artist: Papa Roach
Title: Orange Drive Palms
Album: Old Friends From Young Years
Transcribed by: Michael Jonathan
Email: [email protected]

Awesome song, nuff said!

-------------|-----|
-------------|-----|
-------------|-----|
-----54---55-|-333-|
-222----2-33-|-111-|
-------------|-----|
intro end with

---------------|------------------------------------------
---------------|------------------------------------------
---------------|------------------------------------------
------10-9-7-9-|---9-10-9-----9-10-9-10-9-----------------
-7-10--8-7-5-7-|-7--------7-8-----------------------------
-5-8-----------|------------------------------------------
verse interlude




Ваше мнение



Капча