Title : M-80 (Explosive Energy Movement)
Album : LoveHateTragedy
Artist/Group : Papa Roach
Info : 4 Strings Standard Bass
Created by : George Knuff ([email protected])


I'm not sure this is correct but it sounds cool!

Intro
G-----------------------------------------------------|-
D---0-0-0-0---------3-3-3-3-5-5-5-5-0-0-0-0-2-2-2-2-3-|-
A-----------3-3-3-3-----------------------------------|-
E-----------------------------------------------------|-




Verse
G---------------------------||-
D---0-0-0-3-0-0-3-0-0-----0-||-
A---------------------3-3---||-
E---------------------------||-
(repeated several times)



Chorus
G-----------------------------------|-
D---0-0-0-0---------3-3-3-3-5-5-5-5-|-
A-----------3-3-3-3-----------------|-
E-----------------------------------|-




Bridge (BREAK IT!)
G---------|-
D---3-5-3-|-
A---------|-
E---------|-
(repeated several times)

The Order's pretty straightforward




Ваше мнение



Капча