DATE: 02/21/03
BAND: Papa Roach
SONG: Lovehatetragedy
ALBUM: Lovehatetragedy
TUNING: Dropped D (D-A-D-G-B-E)
TABBED BY: Juan Ignacio Insua.
Hi everybody! This is my fifth tab and I want to do it 100 % right like my others
tabs, їok? So this will take me a long time, like 2 hours. This is not a hard
song to play and the site doesn't have one so I thought I could do one.
Enjoy!
WALKING THRU BARBED WIRE coming soon.
PREFERENCES:
h= hammer on
p= pull off
*= let ring
p.m.= palm mute
Intro 1
------------------------------------------------------------------------------
------------------------------------------------------------------------------
------------------------------------------------------------------------------
---------------11-------------8*----8h10p8--------------------8-------------10
----------------------------------------------8-------------------------------
-----9---------------9-----------------------------------8--------------8-----
9---------9---------------9------------------------8---------------8----------
Intro 2
------------------------
------------------------
------------------------
6-6----6-6----1-1----4-4
6-6----6-6----1-1----4-4
6-6----6-6----1-1----4-4
Riff
--------------------------------
--------------------------------
---------8-8-8-------------8-8-8
6-6-6----6-6-6----6-6-6----6-6-6
6-6-6----6-6-6----6-6-6----6-6-6
6-6-6-------------6-6-6---------
p.m._| p.m.|_____|
--------------------------------
--------------------------------
---------3-3-3-------------6-6-6
1-1-1----1-1-1----4-4-4----4-4-4
1-1-1----1-1-1----4-4-4----4-4-4
1-1-1-------------4-4-4---------
p.m._| p.m.|_____|
Then:
--------------------------------
--------------------------------
---------8-8-8-------------8-8-8
6-6-6----6-6-6----6-6-6----6-6-6
6-6-6----6-6-6----6-6-6----6-6-6
6-6-6-------------6-6-6---------
p.m._| p.m.|_____|
--------------------------------
--------------------------------
---------6-6-6-------------4-4-4
4-4-4----4-4-4----2-2-2----2-2-2
4-4-4----4-4-4----2-2-2----2-2-2
4-4-4-------------2-2-2---------
p.m._| p.m.|_____|
Pre-Chorus
--------------------------------------------
--------------------------------------------
8-8--8-8---1010-1010---1111-1111---1313-1313
6-6--6-6----8-8--8-8----9-9--9-9---1111-1111
6-6--6-6----8-8--8-8----9-9--9-9---1111-1111
6-6--6-6----8-8--8-8----9-9--9-9---1111-1111 x2
Chorus Then:
---------------------- --------------------------
---------------------- --------------------------
1111111111--1010101010 1111111111---13-13-13-13-13
-9-9-9-9-9---8-8-8-8-8 9-9-9-9-9---11-11-11-11-11
-9-9-9-9-9---8-8-8-8-8 9-9-9-9-9---11-11-11-11-11
-9-9-9-9-9---8-8-8-8-8 x3 9-9-9-9-9---11-11-11-11-11
Interludio
-------------------------------------------------------------------------------------
-------------------------------------------------------------------------------------
-------------------------------------------------------------------------------------
-------------------------------------------------------------------------------------
-------------------------------------------------------------------------------------
6-4-6-4---6-4-6-4---13-11-13-11---4-3-4-3---6-4-6-4---8-6-8-6---9-8-9-8--11-9-11-9--- x2
Then:
-----------
-----------
-----------
-----------
-----------
11-11-11-11
Interludio 2
----------------------------------------
----------------------------------------
13/11----13--15--11-----8h10p8-----13-15
--------------------------------7-------
----------------------------------------
----------------------------------------
Order:
* Intro 1 x2
* Intro 2 x2
* Pre-Chorus
* Chorus
* Intro 2
* Riff x2
* Pre-Chorus
* Chorus
* Interludio
* Interludio 2
* Chorus
* Intro 2
That's the whole song. Don't forget any part and respect the spaces.
hope you like it!!!




Ваше мнение



Капча