Author/Artist: Papa Roach
Title: Lenny's
Album: Potatoes For Christmas
Transcribed by: Michael Jonathan
Email: [email protected]

This is pretty much it for this song... of course you'll have to improvise for the
weird solo-ish thing in the middle of the song. I got the only decipherable part down
for ya', you'll have to go it alone from there!

---------------|----------------|---------------|-----------------------------
---------------|----------------|---------------|-----------------------------
---------------|----------------|---------------|-----------------------------
---------------|----------------|--4--4---3-3-3-|--4--4---5-5-55^-------------
--4--4---3-3-3-|--4--4---5-5-55-|-2-22-2-1-1-1--|-2-22-2-3-3-3----------------
-2-22-2-1-1-1--|-2-22-2-3-3-3---|---------------|-----------------------------


------------------------------------------------------------------------------
--12-12-----------------------------------------------------------------------
-9------11--------------------------------------------------------------------
------------------------------------------------------------------------------
------------------------------------------------------------------------------
------------------------------------------------------------------------------




Ваше мнение



Капча