DATE: 02/29/03
BAND: Papa Roach
SONG: Legacy
ALBUM: Infest (clean)
TUNING: Dropped D (D-A-D-G-B-E)
TABBED BY: Juan Ignacio Insua.
Hi everybody, how are you? I'm here again but this time I'm doing an old
Papa Roach's song: Legacy. I'm talking about a great song to play and this
tab has no mistakes so all you have to do is enjoy it!
Check out my others papa roach's tabs!
SHE LOVES ME NOT- LIFE IS A BULLET- WALKING THRU BARBED WIRE-
TIME AND TIME AGAIN- LOVEHATETRAGEDY and M-80 (E.E.M.) Coming soon!!
Intro
-----------
-----------
-----------
x-0-x-0-x-0
x-0-x-0-x-0
x-0-x-0-x-0 For several times.
Riff
------------------------------------------------------------------------------
------------------------------------------------------------------------------
------------------------------------------------------------------------------
---7----10p7-----------7-----8p7-------------7----10p7-----------7-----8p7-8p7
---x-----x-------------x-----x---------------x-----x-------------x-----x---x--
x--0-----0----x-x-x----0-----0-----x-x-x-----0-----0-------------0-----0---0--
Pre-Chorus
-----------------------------------------------------------------------------------
-----------------------------------------------------------------------------------
-----------------------------------------------------------------------------------
8--8--8--8--8--8--8--8----8-8-8-8-8-8-8-8---10-10-10-10-10-10-10-10---10-10-10-10--
10-10-10-10-10-10-10-10---8-8-8-8-8-8-8-8---12-12-12-12-12-12-12-12---10-10-10-10--
8--8--8--8--8--8--8--8----8-8-8-8-8-8-8-8---10-10-10-10-10-10-10-10---10-10-10-10--
Chorus
---------------------------------------------
---------------------------------------------
7----9---10---10-10-10------------10-10--5--5
x----x----x----x--x--x---3-3-3-3---x--x--x--x
5----7----8----8--8--8---3-3-3-3---8--8--3--3
-------------------------3-3-3-3-------------
---------------------------------------------
---------------------------------------------
7----9---10---10-10-10------------10-10--5--5
x----x----x----x--x--x---8-8-8-8---x--x--x--x
5----7----8----8--8--8---8-8-8-8---8--8--3--3
-------------------------8-8-8-8-------------
Interludio
-------
-------
-------
----9-8
0-0---- x4
Ending
-------
-------
-------
0--0--0
0--0--0
0--0--0
Order
* Intro
* Riff x4 times.
* Pre-Chorus
* Riff x8 times.
* Pre-Chorus x2 times.
* Chorus x2 times.
* Intro
* Chorus x2 times.
* Intro
* Ending
That's the whole song. Pretty easy, isn't it? Be careful and respect
the spaces. Hope you like it!




Ваше мнение



Капча