Song : Last Resort
Artist : Papa Roach
Album : Infest
Transcribed by: Ec
TUNING :E-A-D-G-B-E

INTRO
Guitar 1
E|---------------------|
B|---------------------|
G|---9--7--5--4--7-----|
D|---9--7--5--4--7-----|
A|---7--5--3--2--5-----|
E|---7--5--3--2--5-----|
Guitar 2 (comes in after Guitar 1 plays riff once)
E|-----------------------------------------------------------------|
B|-----------------------------------------------------------------|
G|-----------------------------------------------------------------|
D|-----------9--------------------9--------------------9-----------|
A|-7-10-9-10---10-9-10----10-9-10---10-9-10----10-9-10---10-9-10---|
E|---------------------10--------------------8-------------------7-|
Verse:
Play above riff 3 times, all Palm Muted. On the 4th time through, it is like this
E|----------------------------------------------------------------------------|
B|----------------------------------------------------------------------------|
G|--------------------------------------------------------------4-4-4--7-7-7-7|
D|-----------9--------------------9--------------------9--------4-4-4--7-7-7-7|
A|-7-10-9-10---10-9-10----10-9-10---10-9-10----10-9-10---10-9-0-2-2-2--5-5-5-5|
E|---------------------10-------------------8--------------------------------|
[PM].....................................................
1st Chorus (Guitars 1 & 2)
E|---------------------------------
B|---------------------------------
G|-9-9-9-9-9-9-9-7-5-5-5-5-5-5-5---
D|-9-9-9-9-9-9-9-7-5-5-5-5-5-5-5---
A|-7-7-7-7-7-7-7-5-3-3-3-3-3-3-3---
E|---------------------------------
E|---------------------------------------------------
B|---------------------------------------------------
G|11-11-11-11-12-12-12-12--14-14-14-14--11-11-11-11--
D|-x--x--x--x--x--x--x--x---x--x--x--x---x--x--x--x--
A|-9--9--9--9--10-10-10-10--12-12-12-12--9--9--9--9--
E|---------------------------------------------------

E|-------------------------------
B|-------------------------------
G|-9-9-9-9-9-9-9-7-5-5-5-5-5-5-5-
D|-9-9-9-9-9-9-9-7-5-5-5-5-5-5-5-
A|-7-7-7-7-7-7-7-5-3-3-3-3-3-3-3-
E|-------------------------------
E|---------------------------------------------------|
B|---------------------------------------------------|
G|11-11-11-11-12-12-12-12-14-14-14-14-14-14-14-14----|
D|-x--x--x--x--x--x--x--x--x--x--x--x--x--x--x--x----|
A|-9--9--9--9-10-10-10-10-12-12-12-12-12-12-12-12----|
E|---------------------------------------------------|
2nd and 3rd Choruses x2
E------------------------------------
B------------------------------------
G-9-9-9-9-9-9-9-7-5-5-5-5-5-5-5------
D-9-9-9-9-9-9-9-7-5-5-5-5-5-5-5------
A-7-7-7-7-7-7-7-5-3-3-3-3-3-3-3------
E------------------------------------
E-----------------------------------------
B-----------------------------------------
G11111111-12-12-12-12-14-14-14-14-111111--
D-x-x-x-x-x--x--x--x--x--x--x--x--x-x-x---
A-9-9-9-9-10-10-10-10-12-12-12-12-9-9-9---
E-----------------------------------------
bridge 1+2 "nothing's alright......"x2
E-----------------------------------
B-----------------------------------
G-9-9-9-9-9-9-9-7-5-5-5-5-5-5-5-7---
D-9-9-9-9-9-9-9-7-5-5-5-5-5-5-5-7---
A-7-7-7-7-7-7-7-5-3-3-3-3-3-3-3-5---
E-----------------------------------
E-----------------------------------
B-----------------------------------
G---------------7-4-4-4-4-4-4-4-7---
D-5-5-5-5-5-5-5-7-4-4-4-4-4-4-4-7---
A-5-5-5-5-5-5-5-5-2-2-2-2-2-2-2-5---
E-3-3-3-3-3-3-3---------------------
"Im Crying...." x2
E|------------------------------------
B|------------------------------------
G|-x--9-9-9-9-9-9-9-------------------
D|-x--9-9-9-9-9-9-9--x-5-5-5-5-5-5-5--
A|-x--7-7-7-7-7-7-7--x-5-5-5-5-5-5-5--
E|-x--7-7-7-7-7-7-7--x-3-3-3-3-3-3-3--
E|------------------------------------
B|------------------------------------
G|-x--5-5-5-5-5-5-5--x-4-4-4-4-4-4-4--
D|-x--5-5-5-5-5-5-5--x-4-4-4-4-4-4-4--
A|-x--3-3-3-3-3-3-3--x-2-2-2-2-2-2-2--
E|-x--3-3-3-3-3-3-3--x-2-2-2-2-2-2-2--
INTRO RIFF "i...can't...go....on...livng....this...way"
Guitar 1 only 4x times then Guitar 2 comes in (see above for G1 and G2 riffs)

BEGINNING OF OUTRO x2
E----------------------------------
B----------------------------------
G-9-9-9-9-9-9-9-7-5-5-5-5-5-5-5----
D-9-9-9-9-9-9-9-7-5-5-5-5-5-5-5----
A-7-7-7-7-7-7-7-5-3-3-3-3-3-3-3----
E----------------------------------
3rd and 4th time (when he's screaming "I can't go on living this way")
Play above, then add the riff below to the end.
(Not 100% positive on this one)
E------------------------------------------------
B------------------------------------------------
G11-11------12-12-------14-14-------12-14-12-----
D-x--x-------x--x--------x--x--------x--x--x-----
A-9--9------10-10-------12-12-------10-12-10-----
E------------------------------------------------
Just as above riff and screams end....
E------------------------------------
B------------------------------------
G-9-9-9-9-9-9-9-7-5-5-5-5-5-5-5-5----
D-9-9-9-9-9-9-9-7-5-5-5-5-5-5-5-5----
A-7-7-7-7-7-7-7-5-3-3-3-3-3-3-3-3----
E------------------------------------
E----------------------------------------------
B----------------------------------------------
G----------------------------------5-5-5-5-5---
D-0-0-0-0-0-0-0-0----2-2---2-2-2-2-5-5-5-5-5---
A-0-0-0-0-0-0-0-0----2-2---2-2-2-2-3-3-3-3-3---
E--------------------0-0---0-0-0-0-------------
[PM].............

G11------12-------14---------12-----------
D-x-------x--------x----------x-----------
A-9------10-------12---------10-----------
E-----------------------------------------

G-9-9-9-9-9-9-9-7-5-5-5-5-5-5-5---
D-9-9-9-9-9-9-9-7-5-5-5-5-5-5-5---
A-7-7-7-7-7-7-7-5-3-3-3-3-3-3-3---
E---------------------------------
G11------12-------14---------12-----------
D-x-------x--------x----------x-----------
A-9------10-------12---------10-----------
E----------------------------------------
G-9-9-9-9-9-9-9-9-9-9-9--9--------------
D-9-9-9-9-9-9-9-9-9-9-9--9----2---------
A-7-7-7-7-7-7-7-7-7-7-7--7----2---------
E-----------------------------0---------
I thought this whole cd was off the hook
and the guitarist can belt out some great riffs




Ваше мнение



Капча