Papa Roach, Last resort 100% correct.
Tabbed by Gareth Keyes [email protected]

Tuning Dropped D if not this tab will sound b*ll*cks, pardon my French.

Main riff played through verse 2nd guitarist needed
-|-------------------------|--------------------------------------------------
-|-------------------------|--------------------------------------------------
-|-------------------------|--------------------------------------------------
-|-9-9--7-7--5-5--4-4--7-7-|--------------------------------------------------
-|-7-7--5-5--3-3--2-2--5-5-|--------------------------------------------------
-|-9-9--7-7--5-5--4-4--7-7-|--------------------------------------------------

the speedy part though verse that we all love
-|----------------------------------------------------------------------------
-|----------------------------------------------------------------------------
-|----------------------------------------------------------------------------
-|-----------9--------------------9--------------------9-------------------9--
-|-7-10-9-10---10-9-10----10-9-10---10-9-10----10-9-10---10-9-10---10-9-10----
-|---------------------12-------------------10-------------------9------------

----------|-------------------------------------------------------------------
----------|-------------------------------------------------------------------
----------|-------------------------------------------------------------------
----------|-----------9--------------------9--------------------9-------------
-10-9-10--|-7-10-9-10---10-9-10----10-9-10---10-9-10----10-9-10---10-9-10-----
----------|---------------------12-------------------10-----------------------
pm --------------------------------------------------------------
------------------------------------------------------------------------------
------------------------------------------------------------------------------
------------------------------------------------------------------------------
-----------9--------------------9---------------9--------------------9--------
---10-9-10---10-9-10--7-10-9-10---10----10-9-10---10-9-10----10-9-10--10-9-10-
-9-----------------------------------12-------------------10------------------
pm ----------------------------------------------------------------|
------------------|-----------------------------------------------------------
------------------|-----------------------------------------------------------
------------------|-----------------------------------------------------------
----9999-12121212-|-----------------------------------------------------------
----9999-12121212-|-----------------------------------------------------------
-12-9999-12121212-|-----------------------------------------------------------

chorus only play 1st part on 1st chorus
------------------------------------------------------------------------------
------------------------------------------------------------------------------
----------------------------------------------111111111111111111111111111111--
-14-14-14-14-14-14-14-0-10-10-10-10-10-10-10-0-x-x-x-x-x-x-x-x-x-x-x-x-x-x-x--
-14-14-14-14-14-14-14-0-10-10-10-10-10-10-10-0-9-9-9-9-9-9-9-9-9-9-9-9-9-9-9--
-14-14-14-14-14-14-14-0-10-10-10-10-10-10-10-0-0-0-0-0-0-0-0-0-0-0-0-0-0-0-0--

---|--------------------------------------------------------------------------
---|--------------------------------------------------------------------------
-11|--------------------------------------------------------------------------
-x-|-----------------------------------------------------------------------x2-
-9-|--------------------------------------------------------------------------
-0-|--------------------------------------------------------------------------

2nd part
--------------------------------------------------------------------------|---
--------------------------------------------------------------------------|---
--------------------------------------------------------------------------|---
-14-14-14-14-14-14-14-0-10-10-10-10-10-10-10-5-5-5-5-5-5-5-5-9-9-9-9-9-9-9|x2-
-14-14-14-14-14-14-14-0-10-10-10-10-10-10-10-5-5-5-5-5-5-5-5-9-9-9-9-9-9-9|---
-14-14-14-14-14-14-14-0-10-10-10-10-10-10-10-5-5-5-5-5-5-5-5-9-9-9-9-9-9-9|---

last part of 2nd chorus
------------------------------------------------------------------------------
------------------------------------------------------------------------------
-------------------7-7-7-7-7-7-7-7---12-12-12-12-12-12-12-12—-11111111111111111
-9-9-9-9-9-9-9-9---5-5-5-5-5-5-5-5---10-10-10-10-10-10-10-10---9-9-9-9-9-9-9-9x2
-7-7-7-7-7-7-7-7---5-5-5-5-5-5-5-5---10-10-10-10-10-10-10-10---9-9-9-9-9-9-9-9
-9-9-9-9-9-9-9-9---5-5-5-5-5-5-5-5---10-10-10-10-10-10-10-10---9-9-9-9-9-9-9-9




Ваше мнение



Капча