Infest-Papa Roach
Infest

Drop D

Intro: Fig 1. x2

e-----------------------------------------------------------------
b-----------------------------------------------------------------
g--------------9-9---------------9-9------------------------------
d-0-0----------7-7-----10-10-----7-7------------9-9-----5-5-------
a-0-0----------7-7------8--8-----7-7------------7-7-----3-3-------
d-0-0----------7-7-----10-10-----7-7------------9-9-----5-5-------

Fig 2. Verse 1. pm x3

e-----------------------------------------------------------------
b-----------------------------------------------------------------
g-----------------------------------------------------------------
d-------15----15-------15------10---10-----10---------------------
a----------------12--------------------7--------------------------
d-12-12----12-------12----12-7----7------7------------------------

e-----------------------------------------------------------------
b-----------------------------------------------------------------
g-----------------------------------------------------------------
d-------15----15-------15------10---10----------------------------
a----------------12------------------7----------------------------
d-12-12----12-------12----12-7----7--7----------------------------

Fig 3.

e-----------------------------------------------------------------
b-----------------------------------------------------------------
g-----------------------------------------------------------------
d-12-12-15--15--12-12-12-12-15--15--12-12-12--15--12-12-12-12-12--
a-12-12-12--12--12-12-12-12-12--12--12-12-12--12--12-12-12-12-12--
d-12-12-12--12--12-12-12-12-12--12--12-12-12--12--12-12-12-12-12--

Verses:

e-----------------------------------------------------------------
b-----------------------------------------------------------------
g---------------------------------------------------------------9-
d-----15--15-----------15--15----------15--15-----------15-----10-
a-0-0-12--12---0-0-0-0-12--12--0---0-0-12--12---0-0-0-0-12--0-0-0-
d-0-0-12--12---0-0-0-0-12--12--0---0-0-12--12---0-0-0-0-12--0-0---

e-----------------------------------------------------------------
b-----------------------------------------------------------------
g-----------------------------------------------------------------
d-----15--15-----------15--15----------15--15-----------15--------
a-0-0-12--12---0-0-0-0-12--12--0---0-0-12--12---0-0-0-0-12--0-0---
d-0-0-12--12---0-0-0-0-12--12--0---0-0-12--12---0-0-0-0-12--0-0---

Pre Chorus:

e-----------------------------------------------------------------
b-----------------------------------------------------------------
g-9-9-9-9-9-9-9-9-7-7-7-7-7-7-7-7-9-9-9-9-9-9-9-9-7-7-7-7-7-7-7-7-
d-7-7-7-7-7-7-7-7-9-9-91010101010-8-8-8-8-7-7-7-7-9-9-91010101010-
a-7-7-7-7-7-7-7-7-7-7-7-7-7-7-7-7-7-7-7-7-7-7-7-7-7-7-7-7-7-7-7-7-
d-7-7-7-7-7-7-7-7-7-7-7-7-7-7-7-7-7-7-7-7-7-7-7-7-7-7-7-7-7-7-7-7-

e-----------------------------------------------------------------
b-----------------------------------------------------------------
g-9-9-9-9-9-9-9-9-7-7-7-7-7-7-7-7-9-9-9-9-9-9-9-9-----------------
d-7-7-7-7-7-7-7-7-9-9-9101010101010-8-8-8-8-7-7-7-----------------
a-7-7-7-7-7-7-7-7-7-7-7-7-7-7-7-7-7-7-7-7-7-7-7-7-2-2-2-3-3-3-3-3-
d-7-7-7-7-7-7-7-7-7-7-7-7-7-7-7-7-7-7-7-7-7-7-7-7-2-2-2-3-3-3-3-3-

Chorus: Fig 4

e-----------------------------------------------------------------
b-----------------------------------------------------------------
g-------10101010----10--101010--------10101010-----12---10/12-----
d-----------------------------------------------------------------
a-0--0---8-8-8-8-0---8---8-8-8--0--0---8-8-8-8-0---10----8/10-----
d-0--0-----------0--------------0--0-----------0------------------

e-----------------------------------------------------------------
b-----------------------------------------------------------------
g--------5-5-5-5-----5---5-5-5---------5-5-5-5----10---9-10-------
d-2--2---x-x-x-x-2---x---x-x-x--2--2---x-x-x-x-2---x---x--x-------
a-0--0---3-3-3-3-0---3---3-3-3--0--0---3-3-3-3-0---8---7--8-------
d-----------------------------------------------------------------

Interlude: Fig2, then Fig 1.

Outro Riff:

e-----------------------------------------------------------------
b-----------------------------------------------------------------
g-------10101010--------10101010--------10101010--------10101010--
d--------x-x-x-x---------x-x-x-x---------x-x-x-x---------x-x-x-x--
a-0--0---8-8-8-8--0--0---8-8-8-8--0--0---8-8-8-8--0--0---8-8-8-8--
d-0--0------------0--0------------0--0------------0--0------------

that’s all
just piece it together

this is one of the best songs on the c.d.

trevor jones
[email protected]




Ваше мнение



Капча