Papa Roach - Gouge Away
Tabbed By: nick
EMail: [email protected]
[email protected]-------------
------------------------------|--------10b-10--10-12--------------------------
------------------------------|----6------------------------------------------
-7-7-7-7-7-7-7-7-7-7-7-7-7-7--|--7--------------------------------------------
------------------------------|-----------------------------------------------
------------------------------|-----------------------------------------------
Intro Prechorus
------------------------------------------------------------------------------
------------------------------------------------------------------------------
------------------------------------------------------------------------------
-7-7-7-7-7-7-7-7-10-10-10-10-10-10-10-10-3-3-3-3-3-3-3-3-7--7--7--7--7--7--7--
-7-7-7-7-7-7-7-7-10-10-10-10-10-10-10-10-3-3-3-3-3-3-3-3-7--7--7--7--7--7--7--
-7-7-7-7-7-7-7-7-10-10-10-10-10-10-10-10-3-3-3-3-3-3-3-3-7--7--7--7--7--7--7--
Chorus
------------------------------------------------------------------------------
------------------------------------------------------------------------------
------------------------------------------------------------------------------
-7-5-5-5-5-5-5-5-5------------------------------------------------------------
-7-3-3-3-3-3-3-3-3------------------------------------------------------------
-7-3-3-3-3-3-3-3-3------------------------------------------------------------
Outro




Ваше мнение



Капча