Karl Gale
[email protected]
Dead Cell Intro
Papa Roach
E|-----------------------------------------|-----------------------------------------|
B|-----------------------------------------|-----------------------------------------|
G|-----------------------------------------|-----------------------------------------|
D|-----------------------------------------|-----------------------------------------|
A|-----------------------------------------|----------------------------3-2-2-2------|
D|-0-2-0-2-0-2-0-2-2-(x3)--0-2-0-4-0-5-5---|-0-2-0-2-0-2-0-2-2-(x3)-0-2--------------|
E|-----------------------------------------|-----------------------------------------|
B|-----------------------------------------|-----------------------------------------|
G|-----------------------------------------|----------------------------5-4-4-4------|
D|-0-2-0-2-0-2-0-2-2-------0-2-0-4-0-5-5---|-0-2-0-2-0-2-0-2-2----------5-4-4-4------|
A|-0-2-0-2-0-2-0-2-2-------0-2-0-4-0-5-5---|-0-2-0-2-0-2-0-2-2----------3-2-2-2------|
D|-0-2-0-2-0-2-0-2-2-(x3)--0-2-0-4-0-5-5---|-0-2-0-2-0-2-0-2-2-(x3)-0-2--------------|




Ваше мнение



Капча