TUNING: drop d (D-A-D-G-B-E)
* = Echo
RIFF A: Intro/Main Riff
|------------------------------------------------|
|------------------------------------------------|
|------------------------------------------------|
|-0-4--4-4-4--0-6--6-6-6--0-7--7-7-7--0-6--6-6-6-|
|-0-4--4-4-4--0-4--4-4-4--0-4--4-4-4--0-4--4-4-4-|
|-0-4--4-4-4--0-4--4-4-4--0-4--4-4-4--0-4--4-4-4-|
* * * * * * * * * * * *
|--------------------|
|--------------------|
|--------------------|
|-0-7--7-7-7-7-7-7-7-|




Ваше мнение



Капча