i am 100% that this is the right way to play this song

Broken Home
Papa Roach
Infest
tabbed by: KornFreak [email protected]
dropped D tuning
Intro 1 (w/delay effect)
D--------------------------------------------
A--------------------------------------------
D--------------------------------------------
G-0-4-4-4-4--0-6-6-6-6--0-7-7-7-7--0-6-6-6-6-
B-0-4-4-4-4--0-4-4-4-4--0-4-4-4-4--0-4-4-4-4-
E-0-4-4-4-4--0-4-4-4-4--0-4-4-4-4--0-4-4-4-4-
Intro 2
G-4--4--4--6--6--6--7--7--7--7--9--9--9--9-
B-4--4--4--4--4--4--5--5--5--5--7--7--7--7-
E-4--4--4--6--6--6--7--7--7--7--9--9--9--9-
Verse
D----------------------------------
A----------------------------------
D----------------------------------
G-4-4-xx-----x--------0--2--2-2----
B-4-4-xx-4/5-x-5/7-7--0--2--2-2----
E-4-4-xx-----x--------0--2--2-2----
D---------------------------------
A---------------------------------
D--------6/7---7/9-9----4-4-4-----
G-6-6-xx-----x--------0-2-2-2-----
B-4-4-xx-4/5-x-5/7-7--0-2-2-2-----
E-4-4-xx-----x--------0-2-2-2-----
Pre-Chorus:
D---------------------------------
A---------------------------------
D---------------------------------
G-4-4----4-4----4-4----4-4-4------
B-4-4----4-4----4-4----4-4-4------
E-4-4--0-4-4--0-4-4--0-4-4-4-0----
D----------------------------------------
A----------------------------------------
D----------------------------------------
G12-12-12-12-11-11-11-11-9-9-9-9-7-7-7-7-
B-x--x--x--x--x--x--x--x-x-x-x-x-x-x-x-x-
E12-12-12-12-11-11-11-11-9-9-9-9-7-7-7-7-
D---------------------------------
A---------------------------------
D---------------------------------
G-4-4----4-4----4-4----4-4-4------
B-4-4----4-4----4-4----4-4-4------
E-4-4--0-4-4--0-4-4--0-4-4-4-0----
Chorus
D-----------------------------------------
A-----------------------------------------
D-----------------------------------------
G-4-4-4-4-0-6-6-6-6-0-7-7-7-7-0-6-6-6-6-0-
B-4-4-4-4-0-4-4-4-4-0-4-4-4-4-0-4-4-4-4-0-
E-4-4-4-4-0-4-4-4-4-0-4-4-4-4-0-4-4-4-4-0-
Verse 2 same as verse 1
Bridge:( IM crying day and night now...)
D---------------------------------
A---------------------------------
D-6-6-6-6-6-6-6-6-6-6-6-6-6-6-6---
G-4-4-4-4-4-4-4-4-4-4-4-4-4-4-4---
B-4-4-4-4-4-4-4-4-4-4-4-4-4-4-4---
E-4-4-4-4-4-4-4-4-4-4-4-4-4-4-4---
D-----------------------------------------
A-----------------------------------------
D-----------------------------------------
G-12-12-12-12-11-11-11-11-9-9-9-9-7-7-7-7-
B--x--x--x--x--x--x--x--x-x-x-x-x-x-x-x-x-
E-12-12-12-12-11-11-11-11-9-9-9-9-7-7-7-7-
Interlude:
D-------------------------------------------------
A-------------------------------------------------
D-------------------------------------------------
G-4-4--4-4------2-2------7-7--7-7------2-2--------
B-4-4--4-4-(PM)-2-2-(PM)-4-4--4-4-(PM)-2-2-(PM)---
E-4-4--4-4--0---2-2--0---4-4--4-4--0---2-2--0-----
D---------------------------------------------------------------
A---------------------------------------------------------------
D---------------------------------------------------------------
G-6-6--6-6------2-2------7-7--6-6------2-2------7-7-7-7-7-7-7-7-
B-4-4--4-4-(PM)-2-2-(PM)-4-4--4-4-(PM)-2-2-(PM)-4-4-4-4-4-4-4-4-
E-4-4--4-4--0---2-2--0---4-4--4-4--0---2-2--0---4-4-4-4-4-4-4-4-
(to me, her son, she told me I’m the one...) x2
D--------------------------------------------------
A--------------------------------------------------
D-6-6---6------------------------------------------
G-4-4---4------6-6---6------7-7---7------6-6---6---
B-4-4---4------4-4---4------4-4---4------4-4---4---
E-4-4---4---0--4-4---4---0--4-4---4---0--4-4---4---
BROKEN HOME!!!!!!!!!!!!! x4
D---------------------------------
A---------------------------------
D---------------------------------
G-4-4--4-6-6--6-7-7--7-9--9-------
B-4-4--4-4-4--4-5-5--5-7--7-------
E-4-4--4-6-6--6-7-7--7-9--9-0-----
(Repeat this over using delay)
D----------------------------------------------
A----------------------------------------------
D----------------------------------------------
G-7-7-7-7--7-7-7-7--7-7-7-7--7-7-7-7-----------
B-4-4-4-4--4-4-4-4--4-4-4-4--4-4-4-4-----------
E-4-4-4-4--4-4-4-4--4-4-4-4--4-4-4-4-----------
If you have any questions or comments email me at
[email protected]

[email protected]
Get your FREE download of MSN Explorer at http://explorer.msn.com/intl.asp




Ваше мнение



Капча