----------------------------------------------------------------------
Papa Roach - Born With Nothing, Die with Everything (Intro)
----------------------------------------------------------------------

By: Sean (Smiles)
Email: [email protected]
Tuning: Dropped D High to Low (EBGDAD)

e|-------------------------------------------------------|
B|-------------------------------------------------------|
G|-------------------------------------------------------|
D|-------------------------------------------------------|
A|----------10-10-10-------------------------------------|
D|-10-10-10----------10-10-13-13-----13--8-8-8-8---------| X2

e|------------------------------------------------------------|
B|------------------------------------------------------------|
G|------------------------------------------------------------|
D|------------------------------------------------------------|
A|-------10-10-10-----6-6---------------10-10-10------6-6-----|
D|-6-6-6----------6-6-----------8-6-6-6-----------6-6---------| X2




Ваше мнение



Капча