Tabbed by:Ec
Papa Roach-Blood Brothers
Dropped D Tuning:
Intro (palm muted)
---------------------------------------------------------------
---------------------------------------------------------------
---7-7-10-7-9--------7-7-10-7---------7-------7-7-10-7-9-------
--------------10-7-----------10-10-10--10----------------10-7--
---------------------------------------------------------------
---------------------------------------------------------------
--------------------------
--7-7-10-7----------------
-----------10-7-7-8-7-----
--------------------------
--------------------------
--------------------------
-------------------------------------------------------------------------
-------------------------------------------------------------------------
-------------------------5555--------------------------------------------
-00--3-0-2------0--3-0---5555---00-3-0-2------0--3-0---3333--------------
-00--------3-0--0------0-3333---00-------3-0--0------0-3333--------------
-00-------------0---------------00------------0--------3333--------------
Verse
-------------------------------
-------------------------------
-------------------------------
--3-0-2----------3-0-2---------
--------3-0------------3-0-0---
-------------------------------
Chorus
---------------
---------------
---------------
--0-0---0-00--- repeat a few times
--0-0---0-00---
--0-0---0-00---
-------------------------------------------------------------------------
-------------------------------------------------------------------------
-------------------------------5-----------------------------------------
-00--3-0-2--------0--3-0-----3-5---00---3-0-2-----0--3-0----0-3----------
-00---------3-0---0------0---3-3---00---------3-0-0------0--0-3----------
-00---------------0----------3-----00-------------0---------0-3----------
Chorus ends with
-------- ----------
-------- ----------
---3---- ----------
---3---- -3-03-03--
---1---- -3-03-03--
-------- -3-03-03--
1st time other times
Bridge
-----------------------------------------------------------444---444-----
-----------------------------------------------------------333---333-----
-33---3---33----3---33---33335555----57-77-1077-5-555-7\-----------------
-33-0-3-0-33-0--3-0-33---33335555----57-77-1077-5-555-5\-------0-----0---
-11-0-1-0-11-0--1-0-11---11113333----35-55-8-55-3-333-5\-------0-----0---
----0---0----0----0--------------------------------------------0-----0---
---444---444------------
---333---333------------
------------------------
--------0-----0---------
--------0-----0---------
--------0-----0---------

After bridge, do chorus but do it like this
------------------------------------------------------------------
------------------------------------------------------------------
---------------------------5---7--5---7---5---7--5---7--5---7-----
--0-0---0-00---0-0---0-00--5-0-7--5-0-7---5-0-7--5-0-7--5-0-7-----
--0-0---0-00---0-0---0-00--3-0-5--3-0-5---3-0-5--3-0-5--3-0-5-----
--0-0---0-00---0-0---0-00----0------0-------0------0------0-------
rest of chorus is normal




Ваше мнение



Капча