Standard tuning NOT DROP D!!!

Riff 1 and 5

Lead guitar plays

e-------------------------------------------------------------|
B-------------------------------------------------------------|
G-------------------------------------------------------------|
D-------------------------------------------------------------|
A-5-8-7-10-8-7-8-7-8-7-10-8-7-8-8-7-10-8-7-8-7-8-7-10-8-7-8-7-|
E-----------------8------------6--------------5---------------|

Riff 2

Both guitars play

e-----------------------------------------------------|
B-----------------------------------------------------|
G-7-7-5-5-5-5-5-5-5-5-7-7-7-7-7-7-7-7-5-5-5-5-5-5-5-5-|
D-7-7-5-5-5-5-5-5-5-5-7-7-7-7-7-7-7-7-5-5-5-5-5-5-5-5-|
A-5-5-3-3-3-3-3-3-3-3-5-5-5-5-5-5-5-5-3-3-3-3-3-3-3-3-|
E-----------------------------------------------------|

e-----------------------------------------------------|
B-----------------------------------------------------|
G-----5-5-5-5-5-5-5-5-----------------5-5-5-5-5-5-5-5-|
D-7-7-5-5-5-5-5-5-5-5-7-7-7-7-7-7-7-7-5-5-5-5-5-5-5-5-|
A-7-7-3-3-3-3-3-3-3-3-7-7-7-7-7-7-7-7-3-3-3-3-3-3-3-3-|
E-5-5-----------------5-5-5-5-5-5-5-5-----------------|

e-----------------------------------------------------|
B-----------------------------------------------------|
G-7-7-5-5-5-5-5-5-5-5-7-7-7-7-7-7-7-7-5-5-5-5-5-5-5-5-|
D-7-7-5-5-5-5-5-5-5-5-7-7-7-7-7-7-7-7-5-5-5-5-5-5-5-5-|
A-5-5-3-3-3-3-3-3-3-3-5-5-5-5-5-5-5-5-3-3-3-3-3-3-3-3-|
E-----------------------------------------------------|

e-------------------------------------|
B-------------------------------------|
G-------------------------------------|
D-7-7-8-8-8-8-8-8-8-8-3-3-3-3-2-2-2-2-|
A-7-7-8-8-8-8-8-8-8-8-3-3-3-3-2-2-2-2-|
E-5-5-6-6-6-6-6-6-6-6-1-1-1-1-0-0-0-0-|

Riff 3

Rhythm Guitar plays

e---------------------------------------------------------|
B---------------------------------------------------------|
G-7-7-7-7---------5-5-5-5-------------------------5-5-5-5-|
D-7-7-7-7---------5-5-5-5---------7-7-7-7---------5-5-5-5-|
A-5-5-5-5---------3-3-3-3---------7-7-7-7---------3-3-3-3-|
E---------------------------------5-5-5-5-----------------|

Lead plays

e-----------------------------------------------------------------------|
B-----------------------------------------------------------------------|
G-----------------------------------------------------------------------|
D-----------------------------------------------------------------------|
A-8-7-10-8-7-8-7-----8-7-10-8-7-8-7-----8-7-10-8-7-8-----8-7-10-8-7-8-7-|
E-----------------------------------------------------------------------|

Riff 4 and 6

Both play

e---------------------------------------------------------|
B---------------------------------------------------------|
G-7-7-7-7-5-5-5-5-5-5-5-5-7-7-7-7-7-7-7-7-5-5-5-5-5-5-5-5-|
D-7-7-7-7-5-5-5-5-5-5-5-5-7-7-7-7-7-7-7-7-5-5-5-5-5-5-5-5-|
A-5-5-5-5-3-3-3-3-3-3-3-3-5-5-5-5-5-5-5-5-3-3-3-3-3-3-3-3-|
E---------------------------------------------------------|

e---------------------------------------------------------|
B---------------------------------------------------------|
G---------5-5-5-5-5-5-5-5-----------------5-5-5-5-5-5-5-5-|
D-7-7-7-7-5-5-5-5-5-5-5-5-7-7-7-7-7-7-7-7-5-5-5-5-5-5-5-5-|
A-7-7-7-7-3-3-3-3-3-3-3-3-7-7-7-7-7-7-7-7-3-3-3-3-3-3-3-3-|
E-5-5-5-5-----------------5-5-5-5-5-5-5-5-----------------|




Ваше мнение



Капча