I am 100% sure that this is the right way to play this song
Papa Roach
Between Angels & Insects
Infest
Tab by – KornyFreak [email protected]
Tuning – Drop D
Intro/bridge riff
E------------------------------------------------
B------------------------------------------------
G------------------------------------------------
D------------------------------------------------
A---8---7---10---7----7h8---8---7---10---7---7h8-
D-0---0---0----0---0------8---8---8----8---8-----
E-----------------------------------------------------
B-----------------------------------------------------
G-----------------------------------------------------
D-----------------------------------------------------
A---8---7---10---7---7-------8----7----10----7----8/7-
D-7---7---7----7---7------10---10---10----10---10-----
Intro 2 x2
E--------------------------------------
B--------------------------------------
G--------------------------------------
D-0--0--0--0-0-12-10-10-10-10-10-10-10-
A-0--0--0--0-0-12-10-10-10-10-10-10-10-
D-0--0--0--0-0-12-10-10-10-10-10-10-10-
E---------------------------------------
B---------------------------------------
G---------------------------------------
D-0-7--7--7--7-7-7h10-10-10-10-10-10-10-
A-0-7--7--7--7-7-7h10-10-10-10-10-10-10-
D-0-7--7--7--7-7-7h10-10-10-10-10-10-10-
E--------------------------------------------------------------
B--------------------------------------------------------------
G--------------------------------------------------------------
D-0-7--7--7--7-7-7h8-8-8-8-8-8-0---3-3-3--3-3-3-1-1-1-1-1-1-1--
A-0-7--7--7--7-7-7h8-8-8-8-8-8-0---3-3-3--3-3-3-1-1-1-1-1-1-1--
D-0-7--7--7--7-7-7h8-8-8-8-8-8-0---3-3-3--3-3-3-1-1-1-1-1-1-1--
Verse
E-------------------------------------
B-------------------------------------
G------------7-----10-12-12-12---10---
D-0-0-0-0-0--x-----x--x--x--x----x----
A-0-0-0-0-0--5---0-8/-10-10-10---8----
D-0-0-0-0-0------------------------0--
p.m. - - |
E-------------------------------------
B-------------------------------------
G------------7-----10-12-12-12---10---
D-3-3-3-3-3--x-----x--x--x--x----x----
A-3-3-3-3-3--5---0-8/-10-10-10---8----
D-3-3-3-3-3------------------------0--
p.m. - - |
E-------------------------------------
B-------------------------------------
G------------7-----10-12-12-12---10---
D-7-7-7-7-7--x-----x--x--x--x----x----
A-7-7-7-7-7--5---0-8/-10-10-10---8----
D-7-7-7-7-7------------------------0--
p.m. - - |
E------------------------------------------
B------------------------------------------
G------------------------------------------
D-8-8-8-8-8--------------------------------
A-8-8-8-8-8--0-----------------------------
D-8-8-8-8-8--0—8h10-10--8h10-10—8h10-------
p.m. - - |
Chorus 1 (1:17) x2
E--------------------------------------
B--------------------------------------
G--------------------------------------
D-0--0--0--0-0-12-10-10-10-10-10-10-10-
A-0--0--0--0-0-12-10-10-10-10-10-10-10-
D-0--0--0--0-0-12-10-10-10-10-10-10-10-
X2
E---------------------------------------
B---------------------------------------
G---------------------------------------
D-0-7--7--7--7-7-7h10-10-10-10-10-10-10-
A-0-7--7--7--7-7-7h10-10-10-10-10-10-10-
D-0-7--7--7--7-7-7h10-10-10-10-10-10-10-
Chorus 2 x2
E-------------------------------------
B-------------------------------------
G-------------------------------------
D-0--0--0--0--12-10-10-10-10-10-10-10-
A-0--0--0--0--12-10-10-10-10-10-10-10-
D-0--0--0--0--12-10-10-10-10-10-10-10-
E-------------------------------
B-------------------------------
G-------------------------------
D-0-7--7--7--7--7h8-8-8-8-8-8-8-
A-0-7--7--7--7--7h8-8-8-8-8-8-8-
D-0-7--7--7--7--7h8-8-8-8-8-8-8-
E-----------------------------------
B-----------------------------------
G-----------------------------------
D-0-3--3--3--3--3-0-1-1-1-1-1-1-1-1-
A-0-3--3--3--3--3-0-1-1-1-1-1-1-1-1-
D-0-3--3--3--3--3-0-1-1-1-1-1-1-1-1-
Bridge (let each note ring)
E----------------------------
B----------------------------
G-10---10--------------------
D-7----8------7-----10-------
A-8----8------8-----8--------
D-0----8------7-----10-------
Ending Chord (let ring)
E--------------
B--------------
G--------------
D-0------------
A-0------------
D-0------------
if you have any questions or comments, email me at
[email protected]

[email protected]
Get your FREE download of MSN Explorer at http://explorer.msn.com/intl.asp




Ваше мнение



Капча