most of the tabs for this song are close but and close enough so i am positive this tab is 100% correct cause i play with the song all the time so here it is
drop d tuning low(d,a,d,g,b,e,)high
album:infest

intro
d)-----------------------------------------------
a)---8---7---10---8---7h8---8---7---10---8---7h8-
d)-0---0---0----0---0-----8---8---8----8---8-----

d)----------------------------------------------------
a)---8---7---10---8---7h8----8----7----10----8----8s7-
d)-7---7---7----7---7-----10---10---10----10---10-----

intro 2
g)------------5-5-5-5-5-5-5-5------------5-5-5-5-5-5-5-5-
d)-0--0--0--0-5-5-5-5-5-5-5-5-0--0--0--0-5-5-5-5-5-5-5-5-
a)-0--0--0--0-3-3-3-3-3-3-3-3-0--0--0--0-3-3-3-3-3-3-3-3-
d)-0--0--0--0-----------------0--0--0--0-----------------

g)------------5-5-5-5-5-5-5-5------------5-5-5-5-5-5-5-5-
d)-7--7--7--7-5-5-5-5-5-5-5-5-7--7--7--7-5-5-5-5-5-5-5-5-
a)-7--7--7--7-3-3-3-3-3-3-3-3-7--7--7--7-3-3-3-3-3-3-3-3-
d)-7--7--7--7-----------------7--7--7--7-----------------

verse
d)-(0-0-0-0-0)------------------------(8-8-8-8-8)------------------------
a)-(0-0-0-0-0)-7s8-8h10-10-10-10-10p8-(8-8-8-8-8)-7s8-8h10-10-10-10-10p8-
d)-(0-0-0-0-0)------------------------(8-8-8-8-8)------------------------

d)-(7-7-7-7-7)------------------------(10-10-10-10-10)----------------------
a)-(7-7-7-7-7)-7s8-8h10-10-10-10-10p8-(10-10-10-10-10)----------------------
d)-(7-7-7-7-7)------------------------(10-10-10-10-10)-0-8h10-0-8h10-0-8h10-

end of verse
d)-(10-10-10-10-10)------------------------
a)-(10-10-10-10-10)-7s8-8h10-10-10-10-10p8-
d)-(10-10-10-10-10)------------------------
listen to the song to get the verse

chorus
g)------------5-5-5-5-5-5-5-5------------5-5-5-5-5-5-5-5-
d)-0--0--0--0-5-5-5-5-5-5-5-5-0--0--0--0-5-5-5-5-5-5-5-5-
a)-0--0--0--0-3-3-3-3-3-3-3-3-0--0--0--0-3-3-3-3-3-3-3-3-
d)-0--0--0--0-----------------0--0--0--0-----------------

g)------------5-5-5-5-5-5-5-5------------5-5-5-5-5-5-5-5s7-
d)-7--7--7--7-5-5-5-5-5-5-5-5-7--7--7--7-5-5-5-5-5-5-5-5s7-
a)-7--7--7--7-3-3-3-3-3-3-3-3-7--7--7--7-3-3-3-3-3-3-3-3s5-
d)-7--7--7--7-----------------7--7--7--7-------------------

g)------5-5-5-5-5-5-5-5------------5-5-5-5-5-5-5-5-
d)-0----5-5-5-5-5-5-5-5-0--0--0--0-5-5-5-5-5-5-5-5-
a)-0----3-3-3-3-3-3-3-3-0--0--0--0-3-3-3-3-3-3-3-3-
d)-0--------------------0--0--0--0-----------------

g)------------5-5-5-5-5-5-5-5------------5-5-5-5-5-5-5-5-
d)-7--7--7--7-5-5-5-5-5-5-5-5-7--7--7--7-5-5-5-5-5-5-5-5-
a)-7--7--7--7-3-3-3-3-3-3-3-3-7--7--7--7-3-3-3-3-3-3-3-3-
d)-7--7--7--7-----------------7--7--7--7-----------------

other part (play this twice)
d)-----------------------------------------------
a)---8---7---10---8---7h8---8---7---10---8---7h8-
d)-0---0---0----0---0-----8---8---8----8---8-----

d)----------------------------------------------------
a)---8---7---10---8---7h8----8----7----10----8----8s7-
d)-7---7---7----7---7-----10---10---10----10---10-----

then this
d)-----------------------------------------------
a)---8---7---10---8---7h8---8---7---10---8---7h8-
d)-0---0---0----0---0-----8---8---8----8---8-----

d)----------------------------------------------------0-
a)---8---7---10---8---7h8----8----7----10----8----8s7-0-let the 0 ring
d)-7---7---7----7---7-----10---10---10----10---10-----0-

ending
g)-7-7-7-7-7-7-7-7-10-10-10-10-10-10-10-10-7-7-7-7-7-7-7-7-
d)-7-7-7-7-7-7-7-7-10-10-10-10-10-10-10-10-7-7-7-7-7-7-7-7-
a)-5-5-5-5-5-5-5-5-8--8--8---8--8--8--8--8-5-5-5-5-5-5-5-5-
d)---------------------------------------------------------

g)-10-10-10-10-10-10-10-10-9-9-9-9-9-9-9-9-10-10-10-10-10-10-10-10-
d)-10-10-10-10-10-10-10-10-9-9-9-9-9-9-9-9-10-10-10-10-10-10-10-10-
a)--8--8--8--8--8--8--8--8-7-7-7-7-7-7-7-7--8--8--8--8--8--8--8--8-
d)-----------------------------------------------------------------

g)-9-9-9-9-9-9-9-9-10-10-10-10-10-10-10-10---
d)-9-9-9-9-9-9-9-9-10-10-10-10-10-10-10-10-0-
a)-7-7-7-7-7-7-7-7--8--8--8--8--8--8--8--8-0-
d)-----------------------------------------0-

thats it i hope u have fun if there are any problems or mistakes which i dout but e-mail me at [email protected]




Ваше мнение



Капча