Where You Come From
It's REALLY full tab of the damn song!
WHERE YOU COME FROM
Tune all gtrs. down on whole step
Moderate metal d=108.
Intro:
~~~~~~~~~~~~~~~~ ~~~~~~~~~~
|---------------------------|----------------------------|
|---------------------------|----------------------------|
|---------------------------|----------------------------|
|---------------------------|----------------------------|
|-------0-3-5---------------|-5-3-0-----------7----------|
|-0-3-6---------------------|-------6-5-3-0--------------|
~~~~~~~~~~ [hold======]
|---------------------------|----------------------------|
|---------------------------|----------------------------|
|-----------------7---------|------------------6/7---(7)|
|---------------------------|------------------5/6---(6)|
|-------0-3-5---------------|-5-3-0----------------------|
|-0-3-6---------------------|-------6-5-3-0--------------|
1/2 1/2
~~~~ ~~~~~~ [trem/bar / / ]
|---------------------------|----------------12-(12)(12)-|
|---------------------------|----------------12-(12)(12)-|
|---------------------7-----|----------------11-(11)(11)-|
|---------------------------|----------------------------|
|-------0-3-5---------------|-5-3-0----------------------|
|-0-3-6---------------------|-------6-5-3-0--------------|
~~~~ A.H.~~~~~~~ {-3-}
|---------------------------|-----------------------------|
|---------------------------|-----------------------------|
|---------------------------|-----------------------------|
|---------------------------|-----------------------------|
|-------0-3-5-----5---------|-5-3-0-----------------5-6-7|
|-0-3-6---------------------|-------6-5-3-0---2-3-4-------|
~~~~~~~~~~~~~
|---------------------------------|------------------------------|
|---------------------------------|------------------------------|
|---------------------------------|------------------------------|
|-5p0---5p0-----------------------|------------------------------|
|-----7-----7-5p0-5p0---5p0-------|-----------------5^(1)--------|
|---------------------7-----7-5p0-|-3p0-5p0-6-5-3p0--------------|
tr.~~~~~~~~~
|---------------------------------|------------------------------|
|---------------------------------|------------------------------|
|---------------------------------|------------------------------|
|-5p0---5p0-----------------------|------------------0(2)--------|
|-----7-----7-5p0-5p0---5p0-------|------------------------------|
|---------------------7-----7-5p0-|-3p0-5p0-6-5-3p0--------------|
A.H. A.H.~~~~~
|---------------------------------|------------------------------|
|---------------------------------|------------------------------|
|---------------------------------|------------------------------|
|-5p0---5p0-----------------------|------------------------------|
|-----7-----7-5p0-5p0---5p0-------|-----------------5h7-5--------|
|---------------------7-----7-5p0-|-3p0-5p0-6-5-3p0--------------|
[w/trem.bar==]
|---------------------------------|------------------------------|
|---------------------------------|------------------------------|
|---------------------------------|------------------------------|
|-5p0---5p0-----------------------|------------------------------|
|-----7-----7-5p0-5p0---5p0-------|------------------------------|
|---------------------7-----7-5p0-|-3p0-5p0-6-5-3p0-0-----------|
2gtrs: left right left right left right
|-------------------------------|--------------------------------|
|-------------------------------|--------------------------------|
|-------------------------------|--------------------------------|
|-2---2-2-2---2-2-2---2-2-2---2-|-2-2---2-2-2---2-2-2------------|
|-2---2-2-2---2-2-2---2-2-2---2-|-2-2---2-2-2---2-2-2------------|
|-0---0-0-0---0-0-0---0-0-0---0-|-0-0---0-0-0---0-0-0------------|
Riff 1: ~~~~
|-------------------------------|---------------------------------|
|-------------------------------|---------------------------------|
|-------------------------------|---------------------------------|
|-------------------------------|---------------------------------|
|-7---7-7-7---7-7-7---7-7-7---7-|-7-7---7-7-7---7-7-7-5h7---------|
|-0---0-0-0---0-0-0---0-0-0---0-|-0-0---0-0-0---0-0-0-----5---3h5-|
tr.~~~~~~~~~
|-------------------------------|---------------------------------|
|-------------------------------|---------------------------------|
|-------------------------------|---------------------------------|
|-------------------------------|---------------------0(2)--------|
|-7---7-7-7---7-7-7---7-7-7---7-|-7-7---7-7-7---7-7-7-------------|
|-0---0-0-0---0-0-0---0-0-0---0-|-0-0---0-0-0---0-0-0-------------|
~~~~
|-------------------------------|---------------------------------|
|-------------------------------|---------------------------------|
|-------------------------------|---------------------------------|
|-------------------------------|---------------------------------|
|-7---7-7-7---7-7-7---7-7-7---7-|-7-7---7-7-7---7-7-7-5h7---------|
|-0---0-0-0---0-0-0---0-0-0---0-|-0-0---0-0-0---0-0-0-----5---3h5-|
|-------------------------------|---------------------------------|
|-------------------------------|---------------------------------|
|-------------------------------|---------------------------------|
|-------------------------------|-5p0---5p0-----------------------|
|-7---7-7-7---7-7-7---7-7-7---7-|-----7-----7-5p0-5p0---5p0-------|
|-0---0-0-0---0-0-0---0-0-0---0-|---------------------7-----7-5p0-|
Pre-chorus:
~~~~~~~~~~~~~~~~
|---------------------------|----------------------------|
|---------------------------|----------------------------|
|---------------------------|----------------------------|
|---------------------------|----------------------------|
|-------0-3-5---------------|-5-3-0-------------------14|
|-0-3-6---------------------|-------6-5-3-0--------------|
[hold===========]
~~~~~~~~
|---------------------------|----------------------------|
|---------------------------|----------------------------|
|---------------------------|------------------6/7-------|
|---------------------------|------------------5/6-------|
|-------0-3-5------5/6---3--|-5-3-0----------------------|
|-0-3-6------------3/4---1--|-------6-5-3-0--------------|
1/2 1/2
~~~~~~~~~~ [trem/bar / / ]
|---------------------------|----------------------------|
|---------------------------|----------------------------|
|---------------------------|----------------------------|
|---------------------------|----------------------------|
|-------0-3-5-----5---------|-5-3-0----------------------|
|-0-3-6---------------------|-------6-5-3-0------0----0--|
|---------------------------|-----------------------------|
|---------------------------|-----------------------------|
|---------------------------|-----------------------------|
|---------------------------|-----------------------------|
|-------0-3-5-----5/6---3---|-5-3-0-------2---------------|
|-0-3-6-----------3/4---1---|-------6-5-3-0---------------|
Chorus:
~~~~~~~~~~~
|---------------------------------|------------------------------|
|---------------------------------|------------------------------|
|---------------------------------|------------------------------|
|-5p0---5p0-----------------------|------------------------------|
|-----7-----7-5p0-5p0---5p0-------|-----------------5h7----------|
|---------------------7-----7-5p0-|-3p0-5p0-6-5-3p0--------------|
A.H.~~~~~~~~~
|---------------------------------|------------------------------|
|---------------------------------|------------------------------|
|---------------------------------|------------------------------|
|-5p0---5p0-----------------------|------------------------------|
|-----7-----7-5p0-5p0---5p0-------|-----------------5^(1)---5---|
|---------------------7-----7-5p0-|-3p0-5p0-6-5-3p0--------------|
tr.~~~~~~~~~~
|---------------------------------|------------------------------|
|---------------------------------|------------------------------|
|---------------------------------|------------------------------|
|-5p0---5p0-----------------------|------------------------------|
|-----7-----7-5p0-5p0---5p0-------|-----------------0(2)---------|
|---------------------7-----7-5p0-|-3p0-5p0-6-5-3p0--------------|
[1.....
|---------------------------------||------------------------------|
|---------------------------------||------------------------------|
|---------------------------------||------------------------------|
|-5p0---5p0-----------------------||------------------------------|
|-----7-----7-5p0-5p0---5p0-------||------------------------------|
|---------------------7-----7-5p0-||-3p0-5p0-6-5-3p0-0------------|
A.H.~~~~~~~~ ~~~~~~
|---------------------------------|----------------|
|---------------------------------|----------------|
|---------------------------------|----------------|
|---------------------------------|----------------|
|-------------------------5/7-----|-------7/10-----|
|-3---5---6-5-3h5-0---3p0---------|---3p0----------|
......1]
|-------------------------------|--------------------------------||
|-------------------------------|--------------------------------||
|-------------------------------|--------------------------------||
|-2---2-2-2---2-2-2---2-2-2---2-|-2-2---2-2-2---2-2-2------------||
|-2---2-2-2---2-2-2---2-2-2---2-|-2-2---2-2-2---2-2-2------------||
|-0---0-0-0---0-0-0---0-0-0---0-|-0-0---0-0-0---0-0-0------------||
then:[2............
||-------------------------------|-------------------------------|
||-------------------------------|-------------------------------|
||-------------------------------|-------------------------------|
||-------------------------------|-------------------------------|
||-------------------------------|-------------------------------|
||-3p0-5p0-0-5-3-5-0-------------|-3---5---6h5-3p5-0-------------|
A.H.~~~~
|---------------------------------|-------------------------------|
|---------------------------------|-------------------------------|
|---------------------------------|-------------------------------|
|---------------------------------|-------------------------------|
|-------------------------5/7-----|-------------------------------|
|-3p0-5p0-0-5-3-5-0---3p0---------|-3---5---6h5-3p5-0-------------|
A.H.~~~~
|---------------------------------|-------------------------------|
|---------------------------------|-------------------------------|
|---------------------------------|-------------------------------|
|---------------------------------|-------------------------------|
|-------------------------5-------|-------------------------------|
|-3p0-5p0-0-5-3-5-0---3p0---------|-3---5---6h5-3p5-0-------------|
A.H.~~~~
|---------------------------------|-------------------------------|
|---------------------------------|-------------------------------|
|---------------------------------|-------------------------------|
|---------------------------------|-------------------------------|
|-------------------------5/7-----|-------------------------------|
|-3p0-5p0-0-5-3-5-0---3p0---------|-3---5---6h5-3p5-0-------------|
[grad. steady gliss .........2]
|---------------------------------|---------------|---------------||
|---------------------------------|---------------|---------------||
|---------------------------------|---------------|---------------||
|-------------------------5=======|>(7)===========|(12)==>(14)----||
|-------------------------5=======|>(7)===========|(12)==>(14)----||
|-3p0-5p0-0-5-3-5-0---3p0---------|---------------|---------------||
Guitar solo:
w/trem.bar___________________
T T T T________T_________T_________T_________T________/
/ / / /
|-9h12p9-12p9h12p9-12p9h12p9-12p9h12p9-12p9h12p9-12p9h12p9-12p9h12p9-12p9h12p9-|
|------------------------------------------------------------------------------|
|------------------------------------------------------------------------------|
|------------------------------------------------------------------------------|
|------------------------------------------------------------------------------|
|------------------------------------------------------------------------------|
___________________________________________
T T T T T T
/ /
|-12p9h12p9-12p9h12p9-12p9h12p9-12p9h12p9-12p9h12p9-12p9h12p9------------------|
|-------------------------------------------------------------12--------------|
|------------------------------------------------------------------------------|
|------------------------------------------------------------------------------|
|------------------------------------------------------------------------------|
|------------------------------------------------------------------------------|
t t t t t t t t t t t t t t t
|------22p0-23p1-24p2-24p2-24p2-24p2-24p2-23p1-23p1-23p1-22p0-22p0-22p0-24p2-|
|-22p2-----------------------------------------------------------------------|
|----------------------------------------------------------------------------|
|----------------------------------------------------------------------------|
|----------------------------------------------------------------------------|
|----------------------------------------------------------------------------|
t t t t t t t t t t 5/2
|-24p2-24p2-24p2-23p1-23p1-23p1-23p1-22p0-22p0-22p1--------------------------|
|-------------------------------------------------------------------------19^|
|----------------------------------------------------------------------------|
|----------------------------------------------------------------------------|
|----------------------------------------------------------------------------|
|----------------------------------------------------------------------------|
grad.release===> 1 1 1 1 1 1--- 3/2~~~
|---------------17----17----|-17----17----17----17---------------------------|
|----------(19)----19^---19^|----19^---19^---19^---19^19(19)p17---19^(19)p17-|
|---------------------------|-----------------------------------18-----------|
|---------------------------|------------------------------------------------|
|---------------------------|------------------------------------------------|
|---------------------------|------------------------------------------------|
1-- 1-- 1-- 1~~~
|-19-19^-(19)p17-19-19^-(19)p17-19-19^-(19)p17-19-19^---|
|-------------------------------------------------------|
|-------------------------------------------------------|
|-------------------------------------------------------|
|-------------------------------------------------------|
|-------------------------------------------------------|
1-- 1-- 5/2~~~~~~~~~~ 1-- ~~~~
|-17-19^-(19)p17-19^-(19)p17-19^----------19|-----------15-17^-(17)--15--17-----|
|--------------------------------------------|-15/17-------------------------16--|
|--------------------------------------------|-----------------------------------|
|--------------------------------------------|-----------------------------------|
|--------------------------------------------|-----------------------------------|
|--------------------------------------------|-----------------------------------|
~~~ 1-- 3/2 1-- ~~~~~~ 2 ~~~
|--------15----17^-(17)^--17^-(17)p15-----|------------17-17----16----16^----|
|-----------16------------------------15--|---------20-------20----20--------|
|-----------------------------------------|-------------------------------18-|
|-----------------------------------------|----------------------------------|
|-----------------------------------------|----------------------------------|
|-----------------------------------------|----------------------------------|
~~~ 1 ~~ 3/2 ~~~ ~~~~~~~ 1-- 1-- ~~~
|----------21^-21-------|-------15--17^-(17)^(17)p15-----|
|---20^-20--------15/17--|----------------------------16--|
|------------------------|--------------------------------|
|------------------------|--------------------------------|
|------------------------|--------------------------------|
|------------------------|--------------------------------|
[grad. gliss.]
~~~ 1 ~~ 1 ~~ ~~~~~~ 3/2- 3/2- 3/2 ~~~ 3/2 ~~~ 3/2 ~~~~
|-----------------------|----19^-(19)^-(19)^-----------------|---21^-21--21^----21---|
|---16^-16--16^-16--15--|--------------------18--17----------|---------------17-----|
|-----------------------|----------------------------19--18--|-----------------------|
|-----------------------|------------------------------------|-----------------------|
|-----------------------|------------------------------------|-----------------------|
|-----------------------|------------------------------------|-----------------------|
End of solo. (not too simple? :E)
[A.H.===========================]
~~~~ ~~~~ ~~~~
|-------------------------|------------------------------|-----------------|
|-------------------------|------------------------------|-----------------|
|-------------------------|------------------------------|-----------------|
|-2-----------------------|-2------------------5---------|-7---7-----------|
|-2-------------------2-5-|-2----------------7-----7-5---|---------7-5-----|
|-0-------------------0-3-|-0----------------------------|-------------7-5-|
random pick slides down the neck
|-------------------------|-------------------------|-----------------|
|-------------------------|-------------------------|-----------------|
|-------------------------|-------------------------|-----------------|
|-------------------------|---------################|-----------------|
|-2---------------2-5---3-|-2-------################|-----------------|
|-0---------------0-3---1-|-0-------################|-3p0-5p0-6p5-3p0-|
Faster: d=152
[-3-] [-3-] [-3-] [-3-] [-3-] [-3-] [-3-] [-3-]
|-------------------------|-------------------------|-----------------|
|-------------------------|-------------------------|-----------------|
|-------------------------|-------------------------|---0-------0-----|
|-------------------------|-------------------------|-5-------3-------|
|-------5-6-7-------5-6-7-|-------5-6-7-------5-6-7-|-5---5---3---3---|
|-5-6-7-------5-6-7-------|-5-6-7-------5-6-7-------|-3---3---1---1---|
[-3-] [-3-] [-3-] [-3-] [-3-] [-3-] [-3-] [-3-]
|-------------------------|-------------------------|-----------------|
|-------------------------|-------------------------|-----------------|
|-------------------------|-------------------------|---0-------0-----|
|-------------------------|-------------------------|---------6-------|
|-------5-6-7-------5-6-7-|-------5-6-7-------5-6-7-|/8---8---6---6---|
|-5-6-7-------5-6-7-------|-5-6-7-------5-6-7-------|/6---6---4---4---|
[-3-] [-3-] [-3-] [-3-] [-3-] [-3-] [-3-] [-3-]
|-------------------------|-------------------------|-----------------|
|-------------------------|-------------------------|-----------------|
|-------------------------|-------------------------|---0-------0-----|
|-------------------------|-------------------------|-5-------3-------|
|-------5-6-7-------5-6-7-|-------5-6-7-------5-6-7-|-5---5---3---3---|
|-5-6-7-------5-6-7-------|-5-6-7-------5-6-7-------|-3---3---1---1---|
[-3-] [-3-] [-3-] [-3-] [-3-] [-3-] [-3-] [-3-]
|-------------------------|-------------------------|-------------------|
|-------------------------|-------------------------|-------------------|
|-------------------------|-------------------------|---0--------0------|
|-------------------------|-------------------------|-8------/10---10---|
|-------5-6-7-------5-6-7-|-------5-6-7-------5-6-7-|-8---8--/10---10---|
|-5-6-7-------5-6-7-------|-5-6-7-------5-6-7-------|-6---6--/8----8----|
[-3-] [-3-] [-3-] [-3-] [-3-] [-3-] [-3-] [-3-]
|-------------------------|-------------------------|-----------------|
|-------------------------|-------------------------|-----------------|
|-------------------------|-------------------------|-----------------|
|-------------------------|-------------------------|-5---5 3---3---|
|-------5-6-7-------5-6-7-|-------5-6-7-------5-6-7-|-5---5 3---3---|
|-5-6-7-------5-6-7-------|-5-6-7-------5-6-7-------|-3---3 1---1---|
[-3-] [-3-] [-3-] [-3-] [-3-] [-3-] [-3-] [-3-]
|-------------------------|-------------------------|-----------------|
|-------------------------|-------------------------|-----------------|
|-------------------------|-------------------------|-----------------|
|-------------------------|-------------------------|-----8---6-------|
|-------5-6-7-------5-6-7-|-------5-6-7-------5-6-7-|-8---8---6-------|
|-5-6-7-------5-6-7-------|-5-6-7-------5-6-7-------|-6---6---4-------|
[-3-] [-3-] [-3-] [-3-] [-3-] [-3-] [-3-] [-3-]
|-------------------------|-------------------------|-----------------|
|-------------------------|-------------------------|-----------------|
|-------------------------|-------------------------|-----------------|
|-------------------------|-------------------------|-5---5 3---3---|
|-------5-6-7-------5-6-7-|-------5-6-7-------5-6-7-|-5---5 3---3---|
|-5-6-7-------5-6-7-------|-5-6-7-------5-6-7-------|-3---3 1---1---|
[-3-] [-3-] [-3-] [-3-] [-3-] [-3-] [-3-] [-3-]
|-------------------------|-------------------------|-------------------|
|-------------------------|-------------------------|-------------------|
|-------------------------|-------------------------|-------------------|
|-------------------------|-------------------------|-8-------10---10---|
|-------5-6-7-------5-6-7-|-------5-6-7-------5-6-7-|-8---8---10---10---|
|-5-6-7-------5-6-7-------|-5-6-7-------5-6-7-------|-6---6---8----8----|
[-3-] [-3-] [-3-] [-3-]
|-------------------------|-------------------------|-----------------|
|-------------------------|-------------------------|-----------------|
|-------------------------|-------------------------|-----------------|
|-------5----------5----|-------5----------5----|-----------------|
|-------5----------5----|-------5----------5----|-5---5---3---3---|
|-5-6-7-------5-6-7-------|-5-6-7-------5-6-7-------|-3---3---1---1---|
[-3-] [-3-] [-3-] [-3-]
|-------------------------|-------------------------|-----------------|
|-------------------------|-------------------------|-----------------|
|-------12----------12---|-------12----------12---|-----------------|
|-------12----------12---|-------12----------12---|/8-------6-------|
|-------10----------10---|-------10----------10---|/8---8---6---6---|
|-0-0-0-------0-0-0-------|-0-0-0-------0-0-0-------|/6---6---4---4---|
[-3-] [-3-] [-3-] [-3-]
|-------------------------|-------------------------|-----------------|
|-------------------------|-------------------------|-----------------|
|-------------------------|-------------------------|-----------------|
|-------5----------5----|-------5----------5----|-----------------|
|-------5----------5----|-------5----------5----|-5---5---3---3---|
|-5-6-7-------5-6-7-------|-5-6-7-------5-6-7-------|-3---3---1---1---|
[-3-] [-3-] [-3-] [-3-]
|-------------------------|-------------------------|-------------------|
|-------------------------|-------------------------|-------------------|
|-------12----------12---|-------12----------12---|-------------------|
|-------12----------12---|-------12----------12---|/8-------10---10---|
|-------10----------10---|-------10----------10---|/8---8---10---10---|
|-5-6-7-------5-6-7-------|-5-6-7-------5-6-7-------|/6---6---8----8----|
[-3-] [-3-] [-3-] [-3-]
|-------------------------|-------------------------|-----------------|
|-------------------------|-------------------------|-----------------|
|-------------------------|-------------------------|-----------------|
|-------5-----------5----|-------5-----------5----|-----------------|
|-------5-----------5----|-------5-----------5----|-5---5---3---3---|
|-5-6-7-------5-6-7-------|-5-6-7-------5-6-7-------|-3---3---1---1---|
[-3-] [-3-] [-3-] [-3-]
|-------------------------|-------------------------|-----------------|
|-------------------------|-------------------------|-----------------|
|-------12----------12---|-------12----------12---|-----------------|
|-------12----------12---|-------12----------12---|-----------------|
|-------10----------10---|-------10----------10---|/8---8---6---6---|
|-5-6-7-------5-6-7-------|-5-6-7-------5-6-7-------|/6---6---4---4---|
.....Fade out........
PanterA rulez forever!!!!!!!! Yeah!!!




Ваше мнение



Капча