WAR NERVE
Pantera
Tabbed out by Donald Trujillo
Bend-b
Hammer on-h
pull off-p
slide up-/
slide down
palm mute-p.m.
accents->
rest: whole-w
half-h
quarter-q
eighth-e
sixteenth-s
All grts. tuned down approx. 1 1/2 steps
6-C# 3-E
5-F# 2-G#
4-B 1-C#
Intro 4X
----------------------|----------------------------|--------------
----------------------|----------------------------|--------------
-*--------------------|--------------------------*-|--------------
---2-------/7b---7--5-|-2--------8----7----5-------|--2----3--3---
-*-2--------x----x--x-|-2--------x----x----x-----*-|--2----3--3---
---0-------/5b---5--3-|-0--------6----5----3-------|--0----1--1---


--------------|--------------|---------------------------------|
--------------|--------------|---------------------------------|
--------------|--------------|-*-------------------------------|
--------------|----7------3--|---2-2-2-2--2-2-2-2-2-2-------5b-|
----10----10--|----7------3--|-*-2-2-2-2--2-2-2-2-2-2-------x--|
----8------7--|----5------1--|---0-0-0-0--0-0-0-0-0-0---x---3b-|
pm..........................
3X
-----------------------------------|-------------------------------|
-----------------------------------|-------------------------------|
----------------------------------*|-------------------------------|
--2-2-2-2--2-2-2-2-2-2---------7b--|-2-2-2-2--2-2-2-2-2-------8b---|
--2-2-2-2--2-2-2-2-2-2---------x--*|-2-2-2-2--2-2-2-2-2-------x----|
--0-0-0-0--0-0-0-0-0-0-----x---5b--|-0-0-0-0--0-0-0-0-0---x---6b---|
pm....................... pm...................
4X
---------------------------------|---------------------------|
---------------------------------|---------------------------|
-*------------------------------*|---------------------------|
---2-2-2-2--2-2-2-2-2-----/13b---|--2-2-2-2--2-2-2-2-2--s--q-|
-*-2-2-2-2--2-2-2-2-2-------x---*|--2-2-2-2--2-2-2-2-2-------|
---0-0-0-0--0-0-0-0-0--x--/11b---|--0-0-0-0--0-0-0-0-0-------|
pm...................... pm...................
3X
---------------------------------|
---------------------------------|
-*------------------------------*|
---2-2-2-2--2-2-2-2-2-------3b---|
-*-2-2-2-2--2-2-2-2-2-------x---*|
---0-0-0-0--0-0-0-0-0---x---1b---|
pm...................
verse 9X
------------------------------|
------------------------------|
------------------------------|
--2-2-2-2--2-2-2-2-2------/13-|
--2-2-2-2--2-2-2-2-2--------x-|
--0-0-0-0--0-0-0-0-0--x---/11-|
pm.....................
chorus
--------------------|---------------------|--------------------|
--------------------|---------------------|--------------------|
--------------------|---------------------|--------------------|
-----4-4b-4-2h4-----|---------------------|-----5-7b-7-5h-7----|
--------------------|---------------------|--------------------|
--0--------------6--|-(6)--6/9--6--3p2--0-|-(0)--------------6-|

---------------------|---------------------------|
---------------------|---------------------------|
---------------------|---------------------------|
---------------------|--------5--7b----7--5------|
---------------------|----------------------7----|
-(6)--6/9--6--3p2-0--|-(0)--------------------6b-|
grad. bend
Interlude 1&2
riff a 3X
---------------------|-------------------------|------------------|
---------------------|-------------------------|------------------|
-*------------------*|-------------------------|------------------|
---------------------|---------------/7b--7--5-|------------------|
-*------------------*|----------------x---x--x-|------------------|
--11b--0--11b--0--11-|-/11b--0--11--/5b--5--3-|-11b-0-11b-0-11---|
------------------|
------------------|
------------------|
------------------|
----------9--3--3-|
-/11b--0--7--1--1-|
interlude 3 4X riff b
--------------------------------|------------------------------|
--------------------------------|------------------------------|
-*-----------------------------*|-*----------------------------|
--------------------------------|------------------------------|
-*-----------------------------*|-*---------------------7----6-|
--0--3-3-3-3-3-3-3p0-3-3-3p0-3-3|-0--0-0-0-0-0-0-2h3-2----0----|
pm................................ .............
4X riff c 3x
------------------------------|------------------|
------------------------------|------------------|
-----------------------------*|-*---------------*|
------------------------------|------------------|
-----------------------------*|-*--------2--3---*|
--0--0-0-0-0-0-0-5h6-5-3-0-3b-|--11--1--------1-|
pm............................ ___3___
riff b 2x
Interlude 4
riff a 4x
Outro
2X
------------------------|-------------------------|
------------------------|-------------------------|
*-----------------------|-------------------------|
------------------------|-------------------------|
*-2-2-2-2-2-2-2--8-8-7-5|--2-2-2-2-2---8-8-8-7--5-|
--0-0-0-0-0-0-0--6-6-5-3|--0-0-0-0-0-0-6-6-6-5--3-|
_________________________ _________________________
|1.2. |3.
-------------------------|-------------------------|---------|
-------------------------|-------------------------|---------|
------------------------*|-------------------------|---------|
-------------------------|-------------------------|--2------|
-2-2-2-2-2-2-2-3-3-3-3-3*|-2-2-2-2-2-2-3-3-3-3-3-3-|--2------|
-0-0-0-0-0-0-0-1-1-1-1-1-|-0-0-0-0-0-0-1-1-1-1-1-1-|--0------|
Lyrics
Truly,Truly,
Fuck the world for all its worth
every inch of planet earth
fuck myself dont leave me out
dont get involed, dont corner me
inside,unlcer,unjust bastards
file out face first
meet the lies and see who you are
chorus
its forcing you down
and its grinding against you
let the war nerve break
Interlude
for every fucking second the
media piss on me and judges
what i am in one paragraph
look here fuck you all
expect,expect
expect the worst you bleeding heart
but kill me first before it starts
yes my cock is getting hard
we are born different after all
invite meyhem, produce weapons
shout out, burn down
no CNN or media now
chorus
interlude
all the money in the fucking world
counldnt buy me a second of trust
or an ounce of faith in anything you're about
fuck you all
bridge
nothing is worth the sleep i've lost
apologies arent acceptable now
a blistered revenge awaits in me
this is fuckin loveless
hate!8x
hate mail,not read
in jail,instead
hate!4x
lord knows, theres worse
ingnore,the curse


Ваше мнение



Капча