From: [email protected] (Rob Schenk)
Walk by Pantera
Drop D tuning
---------------------------------
---------------------------------
---------------------------------
----------------------------8-----
----------------------------8-----
--0--0--1b---0-------0--8-------
---------------------------------
---------------------------------
---------------------------------
----------------------------6-----
----------------------------6-----
--0--0--1b---0-------0--6-------
---------------------------------
---------------------------------
---------------------------------
----------------------------6-----
----------------------------4-----
--0--0--1b---0-------0---------
---------------------------------
---------------------------------
---------------------------------
---------------------------------
---------------------------------
------------1------3------4------3------1-
-0--0--0--1--0--3--0---4--0--3--0--1-
prechorus
----------------------------------
----------------------------------
----------------------------------
-5--6---7----------------------------
-3--6---7----------------------------
-----6---7--------------------------
A lesson learned in life....
----------------------------------
----------------------------------
----------------------------------
-5----6----3----2---1--------------
-3----6----3----2---1--------------
-------6----3----2---1-------------
chorus (Respect....
---------------------------------
---------------------------------
---------------------------------
----------------------------8-----
----------------------------8-----
--0--0--1b---0-------0--8-------
---------------------------------
---------------------------------
---------------------------------
----------------------------6-----
----------------------------6-----
--0--0--1b---0-------0--6-------
---------------------------------
---------------------------------
---------------------------------
----------------------------6-----
----------------------------4-----
--0--0--1b---0-------0---------
---------------------------------
---------------------------------
---------------------------------
---------------------------------
---------------------------------
------------1------3------4------3------1-
-0--0--0--1--0--3--0---4--0--3--0--1-
Are you talking to me???
---------------------------------
---------------------------------
---------------------------------
---------------------------------
---------------------------------
------------1------3------4------3------1-
-0--0--0--1--0--3--0---4--0--3--0--1-
outro
---------------------------------
---------------------------------
---------------------------------
---------2-/-1----0---------2-/-1--0---
---------2-/-1----0---------2-/-1--0---
-0-0-0-2-/-1----0-0-0-0-2-/-1--0---
Date: Thu, 18 Dec 1997 16:14:19 -0800 (PST)
From: iCeSk8eR
To: [email protected]
Subject: TAB : Pantera - Walk Solo.tab
P A N T E R A
WALK - guitar solo
=======================
Vulgar Display of Power
full full
|----------|----------------------------10----------------------10-------|
|-12b---13b|-~--10----10-------------------13-10-------------------13-10-|
|-12b------|-------13----13-12-10-12-13----------13-12-10-12-13----------|
|----------|-------------------------------------------------------------|
|----------|-------------------------------------------------------------|
|----------|-------------------------------------------------------------|
vib. full 2 full
|----------12b~---10-12-----10b-----10-|
|-----------------------13b-----13b----|
|-13-12-10-----------------------------|
|--------------------------------------|
|--------------------------------------|
|--------------------------------------|
full
|--------10-14-10---10-14-10-14-10----10-------------|
|-13b------------------------------13----13-10-13-10-|
|----------------------------------------------------|
|----------------------------------------------------|
|----------------------------------------------------|
|----------------------------------------------------|
|-----------------------------------------------------|
|----10-----------------------------------------------|
|-13----13-12-10----12----10h11----10-11-10----10h11b-|
|----------------12----12-------------------12--------|
|-----------------------------------------------------|
|-----------------------------------------------------|
2 vib. 2.5 vib. 1.5
|--------------------------------|-------|-13----15----16----18b----|
|--------------------------------|-------|--------------------------|
|-(11b)~--10-11b--11----10-11b~~-|-~~~---|--------------------------|
|--------------------------------|-------|--------------------------|
|--------------------------------|-------|--------------------------|
|--------------------------------|-------|--------------------------|
2 full full vib. w/bar---
|----------6-7-6---|-------------------------|--------------|
|-3--------------8-|-5-6-5-------------------|--------------|
|-3----------------|-------7-4-5-4br---5b-5b-|-3~~~-5-/--5/-|
|-3--5-3-5---------|-------------------------|--------------|
|------------------|-------------------------|--------------|
|------------------|-------------------------|--------------|
vib.
|-----------------|--------------------------------------|
|-----------------|--------------------------------------|
|---------12~~~~~-|-----12-------12-------12-------12----|
|-/x-5-/----------|-/12----12-11----11h12----12-11----11-|
|-----------------|--------------------------------------|
|-----------------|--------------------------------------|
full vib.
|----------------------------|----8------10-------14-------17-----|
|-------------------------3/-|-/7---7/10----10/13----13/16----16/-|
|-----12----12----12b~~~-----|------------------------------------|
|-h12----12----12------------|------------------------------------|
|----------------------------|------------------------------------|
|----------------------------|------------------------------------|
1.5 A.H. dive w/bar
|-----20----20----20b-----|------------||
|-/19----19----19---------|-x----\-----||
|-------------------------|------------||
|-------------------------|------------||
|-------------------------|------------||
|-------------------------|------------||




Ваше мнение



Капча