~From: Paul Zimmerman
PANTERA
This Love
Transcribed by Patrick Mabry, from Guitar World Magazine
Tune down 1/2 step (Eb,Ab,Db,Gb,Bb,Eb)
v = vibrato
/\ = slide up or down
f = bend full step
h = half step bend
q = quarter step bend
h = hammer on
p = pull off
() = sustain the note
A: Intro: moderate rock = 102
rhy fig 1 play 4 times
||-----------------||-----------------||-----------------|-----------------|
||-----------------||-----------------||-----------------|-----------------|
||-----------------||-----2-----2-----||-----------------|-----------------|
||-----2-----2-----||---4-----4---4---||-----2-----2-----|-----2-----2-----|
||---4-----4---4---||-2-----3-------3-||---4-----4---4---|---4-----4---4---|
||-2-----3-------3-||-----------------||-2-----3-------3-|-2-----3-------3-|
|-----------------|-----------------|-----------------|-----------------|
|-----------------|-----------------|-----------------|-----------------|
|-----0-----0-----|-----2-----0-----|-----2-----0-----|-------2---------|
|---2-----2---2---|---2-----2---2---|---2-----2---2---|-----2-2---------|
|-4-----3-------3-|-4-----3-------3-|-4-----3-------3-|---2---3---------|
|-----------------|-----------------|-----------------|-4-----5---------|
end intro
B: Verses 1 & 2
1.If ever words were spoken painful and untrue.
2.I'd been the tempting one, stole her from herself.
|-----------------|-----------------|-----------------|-----------------|
|-----------------|-----------------|-----------------|-----------------|
|-----------------|-----------------|-----------------|-----------------|
|-----2-----2-----|-----2-----2-----|-----2-----2-----|-----2-----2-----|
|---4-----4---4---|---4-----4---4---|---4-----4---4---|---4-----4---4---|
|-2-----3-------3-|-2-----3-------3-|-2-----3-------3-|-2-----3-------3-|
1.I said I love, but I lied.
2.This gift in pain, her pain was life.
guitar repeats first 4 bars.
1.In my life, all I wanted was the keeping of someone like you
2.And sometimes, I feel so sorry, I regret this, the hurting of you.
|-----------------|-----------------|-----------------|-----------------|
|-----------------|-----------------|-----------------|-----------------|
|-----0-----0-----|-----2-----0-----|-----2-----0-----|-----------------|
|---2-----2---2---|---2-----2---2---|---2-----2---2---|-----2-----2-----|
|-4-----3-------3-|-4-----3-------3-|-4-----3-------3-|---2-----3---3---|
|-----------------|-----------------|-----------------|-4-----5-------5-|
1.As it turns out, deeper within me, love was twisted and pointed at you.
2.But you made me so unhappy, I'd take my life and leave love with you.
first 3 bars repeat as above |-----------------|
the 4th bar is as follows: |-----------------|
|-------2---------|
|-----2-2---------|
|---2-2-3---------|
|-4-----5---------|
C: 1st and 2nd Pre-Chorus
1.Neverending pain, quickly ending my life. You keep this
2.I'd kill myself for you. I'd kill you for myself. You keep this
|-----------------|-----------------|-----------------|-----------------|
|-----------------|-----------------|-----------------|-----------------|
|-------11v--(11)-|-(11)-9--(9)--8--|-(8)\6--(6)---6--|-(6)--(6)--(6)---|
|-----------------|-----------------|------------x----|-----------------|
|-----------------|-----------------|-----------------|-----------------|
|-----------------|-----------------|-----------------|-----------------|
D: Chorus
love, love, love. You keep this love, love, love. You kee
|---------------------|--------------------|--------------------|---------------
|---------------------|--------------------|--------------------|---------------
|---------------------|--------------------|--------------------|---------------
|---------------------|--------------------|--------------------|---------------
|---4----4----4---4-4-|---4----4--6--5---1-|---4----4---4---4-4-|---4----4--6--5
|-0-2----2--0-2---2-2-|-0-2----2--8--7---3-|-0-2----2-0-2---2-2-|-0-2----2--8--7
fill 1
|-----------------|-----------------|-----------------|-----------------|
|-----------------|-----------------|-----------------|------------17f-v|
|----------9h11---|----------14--16-|-16q-p14h-16h-16h|-16h-p14q--------|
|--------x--------|-----14h16-------|-----------------|-----------------|
|-----------------|-----------------|-----------------|-----------------|
|-----------------|-----------------|-----------------|-----------------|
Well, at this point, I'm pretty sick of doing this. They keep repeating the
part "love, love, love", etc. It should be easy enough to piece together
from this tab.
I hope someone enjoys this one.
Peace, love, and soul,
Paul Zimmerman
--
Danny Felsteiner.




Ваше мнение



Капча