this took me hell alot of time
ANISH KOIRALA.... NEPAL.... KTM..
IF U LIKE MY TABS... CONTACT ME AT [email protected]
PANTERA DIE HARD FAN........
IT MAY LOOOK DIFFICULT... BUT WITH LITTLE PRACTICE U CAN CERTAINLY DO IT DUDE
DUDE.. FOR THIS ONE TO GET THE REAL FEEL..PLAY WITH UR HEART OUT....
HOPE U KNOW ALLL THE SYMBOLS I USED
FOR OTHERES
w - whole note
h - half note
q - quarter note
e - eight note
s - sixteenth note
t - thirty-second note
Rest are noted as capitalized note lengths ie:
W - whole rest
H - half rest
Q - quarter rest
E - eight rest
S - sixteenth rest
T - thirty-second rest
+ is used to show slurs between notes, eg slide up from 5 to 7 without
picking the 7 would be notated like :
|---5/7----
e+e
sliding up with picking the 7 would be notated like :
|---5/7----
e e
Notes without a note length are cue notes.
h - hammer on
p - pull off
b - bend (amount of bend above the measure)
r - release bend
x - muffled string
/ - slide up
- slide down
~ - vibrato (vib. above a measure means a more exaggerated vibrato)

HERE GOES THE SOLO
full hold bend---------|
-----||---------|-------------------------------|-------------|----------|
-----||---------|-------------------------------|-------------|----------|
--16-||--b---~--|-~--16b--16-16-16-16-16-16-16r-|-p14-~------|----------|
-x---||---------|---x---------------------------|-------------|----------|
-----||---------|-------------------------------|-------------|----------|
-----||---------|-------------------------------|-------------|--------x-|
hold bend
full full 1/2 full
|-19b-19~---19b-|-r-19b~-rp17----19------|----------------------|
|---------------|-------------19----19b--|-----r-17-19----19--~-|
|---------------|------------------------|-------------18-------|
|---------------|------------------------|----------------------|
|---------------|------------------------|----------------------|
|---------------|------------------------|----------------------|
full 2 2.5 2.75 1/2
|------------------|-13~-12-10-----10----|--------------13-17-17b-r-13----|
|-~---------------|-----------13b----13-|-b--b----b-------------------17-|
|-----14h16p14-~--|---------------------|--------------------------------|
|----x-------------|---------------------|--------------------------------|
|------------------|---------------------|--------------------------------|
|------------------|---------------------|--------------------------------|
P.H.
full hold---| full 1/2
|---------------------|-------------------|-----------------------|
|-----17/18------15b--|----15--r---~-----|-----------------------|
|-15~-------14~-------|----------------2b-|-r-b-------------------|
|---------------------|-------------------|-----4p2-2h4~----2-----|
|---------------------|-------------------|-------------------3/4-|
|---------------------|-------------------|-----------------------|
w/bar
full full full full slack
|---------------------|--------------------|--------||
|---------------------|--------------------|-10----||
|---------------------|--------------------|-9b----||
|-2-------------------|--------------------|--------||
|---4-3-2-3-2-----7br-|---7b-7---7b-7------|--------||
|-------------0~------|-5------5--------5-|--------||
^ ^ ^ ^ ^ ^ ^
P.H. P.H. P.H.
|-------------------|-----------------|-------|--------------------|
|-------------------|-----------------|-------|--------------------|
|-(9)~-11b---11-11r-|--p9----11p9-11~-|-(11)~-|-14-b-----r--b-14br-|
|-------------------|-----11----------|-------|--------------------|
|-------------------|-----------------|-------|--------------------|
|-------------------|-----------------|-------|--------------------|
1/2 1/2 w/wah 1/2 full 1/2 full
|-----------|-------------|----------------------------|-------------------|
|-----------|-------------|----------------------14-15-|-17b-r-17b-~-----r-|
|-b-r-b-r-~-|------14---~-|-~--/13-13-14-15-15b-------|-------------------|
|-----------|---x---------|----------------------------|-------------------|
|-----------|-x-----------|----------------------------|-------------------|
|-----------|-------------|----------------------------|-------------------|

full 1/2 full 1/2 full full full full full full full full
|-----------------------|--------------------|-------------|-14--14-~-|
|-17b-17b-17b-17b-17b~--|-17b---17b~---------|-14--16--17--|-17b-17b~-|
|-----------------------|--------------------|-16b-18b-19b-|----------|
|-----------------------|--------------------|-------------|----------|
|-----------------------|--------------------|-------------|----------|
|-----------------------|-----------------x-|-------------|----------|
1/4 1/4 1/4 1/4 full full full
|---17b---17-17b-17-17b-17-17b-17p14-|---------|----------17-21-20-19-17-19brp17-|
|------------------------------------|-17br-~--|-~---19b-------------------------|
|------------------------------------|---------|---------------------------------|
|------------------------------------|---------|---------------------------------|
|------------------------------------|---------|---------------------------------|
|------------------------------------|---------|---------------------------------|
hold bend hold bend
full 1.5 1.5 full 1.5 1.5
|--------|--------21b-|----21br----21b---|-b---21-r---21b-21-|
|-19b--~-|-~----------|------------------|-------------------|
|--------|------------|------------------|-------------------|
|--------|------------|------------------|-------------------|
|--------|------------|------------------|-------------------|
|--------|---x-0-----|------------------|-------------------|
hold bends depress bar -5 w/bar
1.5 1.75 1.5 and release slowly
|---r---21b-21b-21--r----r-|--------------|-------|-----|-----|-----||
|--------------------------|-3------------|-------|-----|-----|-----||
|--------------------------|--------------|-------|-----|-----|-----||
|--------------------------|--------------|-------|-----|-----|-----||
|--------------------------|--------------|-------|-----|-----|-----||
|--------------------------|--------------|-------|-----|-----|-----||
PHEEWWWW..... I'M GOING INSANE.....
HOPE U LIKE IT.....PANTERA.... RULLLLZZZZZZ




Ваше мнение



Капча