Author/Artist: Pantera
Title: The Great Southern Trendkill
Album: The Great Southern Trendkill
Transcribed by: Mike
Tune all srtings down 1 step
Key
vvvv- Vibrato, example- 7vvvv
/- Slide, example- 7/9, 9\7
x- muted
Pm- Palm Mute, written below the notes
PH- Pinch Harmonics, artificial, written below the notes
NH- Nateral Harmonics, written below the notes
b- Bend, example- 7b
br- Bend Then Release, example- 7br
brp- Bend then release then pull off, example- 7brp5
h, p- Hammer on, Pull off, example 7h9, 9p7
HB- Hold Bend, written below the notes
T- Tap with pick, example- T19p15p12
DB- Depress bar before you strike the note, example- DB7
D- Pull bar down, written below notes
Riff A - - - - - - - - - - - - - - - - - - - - - - -|
-||--------------------------------------------------|
-||--------------------------------------------------|
-||*-------------------------------------------------|
-||*-------------------------------------------------|
-||--------------------------------------------------|
-||--0--0--0--0--0--0--0--0--0--0--0--0--0--0--0--0--|
Pm- - - - - - - - - - - - - - - - - - - - - - -|
--|--------------------------------------------------|
--|--------------------------------------------------|
--|--------------------------------------------------|
--|--------------------------------------------------|
--|--------------------------------------------------|
--|--0--0--0--0--0--0--0--0--0--0--0--0--0--0--0--0--|
Pm- - - - - - - - - - - - - - - - - - - - - - -|
--|--------------------------------------------------|
--|--------------------------------------------------|
--|--------------------------------------------------|
--|--------------------------------------------------|
--|--------------------------------------------------|
--|--0--0--0--0--0--0--0--0--0--0--0--0--0--0--0--0--|
Pm- - - - - - - - - - - - - - - - - - - - - - -|
--|--------------------------------------------------|
--|--------------------------------------------------|
--|--------------------------------------------------|
--|--------------------------------------------------|
--|--------------------------------------------------|
--|--0--0--0--0--0--0--0--0--0--0--0--0--0--0--0--0--|
Pm- - - - - - - - - - - - - - - - - - - - - - -|
--|-----------------------------------------------|
--|-----------------------------------------------|
--|-----------------------------------------------|
--|-----------------------------------------------|
--|-----------------------------------------------|
--|--1--1--1--1----1--1--1----1--1--1----1--1--1--|
Pm- - - - - - - - - - - - - - - - - - - - - |
Riff B- - - - - - - - - - - - - - - - |
--|------------------------------------|
--|------------------------------------|
--|------------------------------------|
--|-------------3--4-------------------|
--|-------------1--2-------------3--4--|
--|--3--3----3--------3--3----3--1--2--|
Pm Pm
--|------------------------------------||
--|------------------------------------||
--|------------------------------------||
--|-------------3--4-------------------||
--|-------------1--2-------------3--4--||
--|--3--3----3--------3--3----3--1--2--||
Pm Pm
(Play Riff B 4X)
Then (Play Riff A 2X)
Then (Play Riff B 2X)
Then (Play Riff A 3X)

--|------------------------------------||
--|------------------------------------||
--|------------------------------------||
--|-------------3--4-------------------||
--|-------------1--2-------------3--4--||
--|--3--3----3--------3vvvvvvv---1--2--||
PH
Riff C- - - - - - - - - - - - - - - - - - - - - - - - - - - |
--|------------------------------|------------------------------|
--|------------------------------|------------------------------|
--|------------------------------|------------------------------|
--|------------------------------|------------------------------|
--|--2--2--2--2--2----2--2-------|--2--2--2--2--2----2--2-------|
--|--0--0--0--0--0----0--0--19\--|--0--0--0--0--0----0--0--/12--|
Pm- - - - - - - - - - | Pm- - - - - - - - - - |
|-1 - - - - - - - - - - - -
-|-------------|----------------|---------------|-------------|-------------|
-|-------------|----------------|---------------|-------------|-------------|
-|-------------|----------------|---------------|-------------|-------------|
-|-------------|----------------|---------------|-------------|-------------|
-|-------------|----------------|---------------|-------------|-------------|
-|-------------|----------------|---------------|-------------|-------------|
1 st time play Riff C 3X, 2nd time only 2 1/2X
- - - - - - - - - - - - | |-2- - - - - - - - - -
--|-----------------------||---------------------|
--|-----------------------||---------------------|
--|----------------------*||---------------------|
--|----------------------*||---------------------|
--|--2--2--2--2-----------||---------------------|
--|--0--0--0--0-----------||---------------------|
Pm- - - - -|
--|-----------------------------------------------||
--|-----------------------------------------------||
--|-----------------------------------------------||
--|-----------------------------------------------||
--|--2--2--2--2--2----2--2---------2--2--2--2--2--||
--|--0--0--0--0--0----0--0--/12----0--0--0--0--0--||
Pm- - - - - - - - - - - - - - - - - - - - - -|
Riff D
--|--------------------|------------------------|---------------------------|-
--|--------------------|------------------------|---------------------------|-
--|--------------------|------------------------|---------------------------|-
--|--5b----------------|-----------5b--5-----5--|--5b----------5--5b--------|-
--|------7-5-7-7-5-----|--5---------------7-----|------7p5------------7p5---|-
--|-----------------7--|-----5--7---------------|-----------7-------------7-|-
PH PH PH- -| PH PH PH- - |
--|--------------------|--------------------------|-------------------------|-
--|--------------------|--------------------------|-------------------------|-
--|--------------------|--------------------------|-------------------------|-
--|----------------5b--|--------------------------|-----------5b--5-----5b--|-
--|--------------------|--------7--5--7--7--5-----|--5---------------7------|-
--|-5vvvvv6vvvvv7------|-----------------------7--|-----5--7----------------|-
PH- - - - -| PH PH PH- -| PH
Riff E
End Riff D
--|-----------------------------|--------------------||---------------------|-
--|-----------------------------|--------------------||---------------------|-
--|-----------------------------|--------------------||---------------------|-
--|--5b----------5--5b----------|----------------3b--||---------------------|-
--|------7p5------------7p5-----|--------------------||----5--3--5--5--3----|-
--|-----------7--------------7--|--5vvvv6vvvvv7------||-------------------5-|-
PH PH- - | PH- - - - -| PH PH- -|
--|---------------------------|-----------------------|---------------------|-
--|---------------------------|-----------------------|---------------------|-
--|---------------------------|-----------------------|---------------------|-
--|-----------------------3b--|-----------------------|------------------3b-|-
--|--3------------------------|-----5--3--5--5--3-----|--3------------------|-
--|-----3--4--5vvvvvvvvv------|--------------------5--|-----5--4--3vvvv-----|-
PH- - - - - - - - - - - | PH- -| PH- - - - |
*2nd Gtr.
--|----------------------|-------------------------|------------------------|-
--|----------------------|-------------------------|-------------------*12--|-
--|----------------------|-------------------------|-------------------*11--|-
--|----------------------|-----3--4--5vvvvvvv--3b--|---------------------3--|-
--|----5--3--5--5--3-----|--3----------------------|------5--3--5--3--------|-
--|-------------------5--|-------------------------|------------------5-----|-
PH AH- - - - - - - - - - - - - -|
End Riff E
--|----------------------||------12-----------|-12--------------------------|-
--|-*12--*12---*12b------||----------12-------|-----12-----------------19b--|-
--|-*11--*11---*11b------||--------------11b--|---------11-----9vvvvv-------|-
--|---3--------------5b--||-------------------|-----------------------------|-
--|------5b-rvvvvvv------||-------------------|-----------------------------|-
--|----------------------||-------------------|-----------------------------|-
With Riff D Hold Bend- - - -|
--|--17--18--19-----------------|------------------|---17-18-19-------------|-
--|--------------19b-rp17--19bvv|vvvvvvvvvvv\-19b--|------------19brp17-19b-|-
--|-----------------------------|------------------|------------------------|-
--|-----------------------------|------------------|------------------------|-
--|-----------------------------|------------------|------------------------|-
--|-----------------------------|------------------|------------------------|-
HB- -
--|--19------19-----------|-------24vvvvvv--------24--|--------------------||-
--|------19------19--p17--|--24b------------24b-------|----------10b-------||-
--|-----------------------|---------------------------|----------10b-------||-
--|-----------------------|---------------------------|--------------------||-
--|-----------------------|---------------------------|--------------------||-
--|-----------------------|---------------------------|--------------------||-
- - - - - - - - -| D
With Riff E
--|-------------------------------|-------------------------|
--|-------------------------------|-------------------------|
--|-------------------------------|-------------------------|
--|-------12--10--12--12--10------|--10---------------------|
--|---------------------------12--|------10---8h10--8vvvvvv-|
--|-------------------------------|-------------------------|
Pm PH
--|------------------------------------------------|------------------------|-
--|--13p10----------------13p10----------------10--|--14--13--12vvv--13h15--|-
--|---------13p12p10-------------13p12p10------10--|--14--13--12vvv---------|-
--|-------------------12-------------------12------|------------------------|-
--|------------------------------------------------|------------------------|-
--|------------------------------------------------|------------------------|-
d
--|------------|-------------|-----------------|----------------||
--|------------|----vvvvvvvv-|vvvvvvvvvvvvvvvvv|-vvvvvvvvv--b---||
--|------------|-------------|-----------------|----------------||
--|------------|-------------|-----------------|----------------||
--|------------|-------------|-----------------|----------------||
--|------------|-------------|-----------------|----------------||
Let 15th fret ring
--|-24--19--19--19--24--19--19--24----------------------------------|
--|---------------------------------19--19--24--19--19--24--19--19--|
--|-----------------------------------------------------------------|
--|-----------------------------------------------------------------|
--|-----------------------------------------------------------------|
--|-----------------------------------------------------------------|
--|-24--19--19--19--24--19--19--24----------------------------------|
--|---------------------------------19--19--24--19--19--24--19--19--|
--|-----------------------------------------------------------------|
--|-----------------------------------------------------------------|
--|-----------------------------------------------------------------|
--|-----------------------------------------------------------------|
--|-24--19--19--19--24--19--19--24----------------------------------|
--|---------------------------------19--19--24--19--19--24--19--19--|
--|-----------------------------------------------------------------|
--|-----------------------------------------------------------------|
--|-----------------------------------------------------------------|
--|-----------------------------------------------------------------|
--|-19-----------19-----------19-----------19------19b|-vvvvvvv-19--19--15--|-
--|-----17--19b------17--19b------17--19b------17-----|---------------------|-
--|---------------------------------------------------|---------------------|-
--|---------------------------------------------------|---------------------|-
--|---------------------------------------------------|---------------------|-
--|---------------------------------------------------|---------------------|-
--|--17h18p17p15--17p15-----------|---------------------------|-------------|-
--|----------------------17-bvvvvv|--12bvvvvvv-------12-------|-------20--20|-
--|-------------------------------|------------11b--------11--|----9-----*7-|-
--|-------------------------------|---------------------------|-------------|-
--|-------------------------------|---------------------------|-------------|-
--|-------------------------------|---------------------------|-------------|-
Hold Bend- - - - -| DB
--|---22------22------22------|--22vvv22vvv22vvv22--22b--|--22b--22b--22b---|-
--|-------20------20------20--|--------------------------|------------------|-
--|---------------------------|--------------------------|------------------|-
--|---------------------------|--------------------------|------------------|-
--|---------------------------|--------------------------|------------------|-
--|---------------------------|--------------------------|------------------|-
--|-----------------------------------|-----------------------------------|
--|-----------------------------------|------13---------------------------|
--|-----------------------------------|-12b------12----10vvvvvvvv--12b----|
--|-----------------------------------|-----------------------------------|
--|-----------------------------------|-----------------------------------|
--|-----------------------------------|-----------------------------------|
let 22nd fret ring then bar dive Hold Bend- | Hold Bend-
--|--------------------|----------------------|-22b---22vvvvvvvvvv\--------|-
--|--13----------------|--15b---15vvvv--------|----------------------------|-
--|------12----10------|----------------------|----------------------------|-
--|--------------------|-------------------0--|----------------------------|-
--|--------------------|----------------0-----|----------------------------|-
--|--------------------|----------------------|----------------------------|-
- - - - - -| D Pm- - |
--||--15--0--0--0--12--0--0--0--14--0--0--0--10--0--0--0--|
--||------------------------------------------------------|
--||*-----------------------------------------------------|
--||*-----------------------------------------------------|
--||---------------*7------*5---*7-------*7---------------|
--||-------------------------------------------*0---------|
Pm- - - | Pm- - - | Pm- - - | Pm- - - |
--|--12--0--0--0--8--0--0--0--10--0--0--0--7--0--0--0--|
--|----------------------------------------------------|
--|---------------------------*0----------------*5b----|
--|----------------------------------------------------|
--|----------------------------------------------------|
--|----------------------------------------------------|
Pm- - - | Pm- - - | Pm- - - | Pm- - - |
--|--8--0--0--0--5--0--0--0--7--0--0--0--3--0--0--0--|
--|--------------------------------------------------|
--|--------------------------------------------------|
--|--------------------------------------------------|
--|-------------*7---*5-----*7----*7-----------------|
--|--------------------------------------*1----------|
Pm- - -| Pm- - - | Pm- - - | Pm- - - |
--|-1----1--1--1----1--1--1--1--1--1--1--1--1---||
--|---------------------------------------------||
--|-----------------------*0-------------------*|| Repeat till fade
--|---------------------------------------*5b--*||
--|---------------------------------------------||
--|---------------------------------------------||
*PH




Ваше мнение



Капча