From: None (The Lollipop Kid)
The Badge
Performed by Pantera
Written by some band outta Oregon, or something like that...
Tune down 1/2
Intro/Verse:
eb|-------------------------------------------------------------------------|
Bb|-------------------------------------------------------------------------|
Gb|*-----------------------------------------------------------------------*|
Db|*-----------------------------------------------------------------------*|
Ab|-2---------------------------9---9---2-----------------------------------|
Eb|-0---0-0-0-0-0-0-0-0-0-0-0-0-7---7---0---0-0-0-0-0-0-0-0-6p5p4---2h3-2h3-|
pm^^^^^^^^^^^^^^^^^^^^^ pm^^^^^^^^^^^^^
eb|-------------------------------------------------------------------------|
Bb|-------------------------------------------------------------------------|
Gb|-------------------------------------------------------------------------|
Db|-2---------------------------3---3---2-----------------------------------|
Ab|-0---0-0-0-0-0-0-0-0-0-0-0-0-1---1---0---0-0-0-0-0-0-0-0?????????????????|
Eb|-------------------------------------------------------------------------|
pm^^^^^^^^^^^^^^^^^^^^^ HELP!^^^^^^^^^^^^^
Then F#, G, F#, E(pm)
Bridge (hehe, it's a Clapton joke):
A, Ab, G, A#, (?) (all "power chords")
Solo Chords:
D, Db, G, C, C#, D (all "power chords")
End (grab a baseball bat and find a KROQ fan...)
eb|-----------------------------------------------------------|
Bb|-----------------------------------------------------------|
Gb|*---------------------------------------------------------*|
Db|*---------------------------------------------------------*|
Ab|-----------3-----------4-----------5-----------6---7---8---|
Eb|---0-0-0-0-1---0-0-0-0-2---0-0-0-0-3---0-0-0-0-4---5---6---|
The something else. Last two chords are G, then E.
"I'll kill you, I'll kill you..."
Obviuosly, this is far from complete TAB, but hopefully it'll help you
out. Doesn't the beginning of that solo just yell "Space ACE" Frehley?
Hehe. Anyway, would someone be kind enough to complete the Wall, I mean
TAB...
From: [email protected] (STEPHEN MATTHEW NIKIFOROW)
Subject: Corrections to TAB for THE BADGE(PanterA)
if any of you got the original posting of the Badge, I made some corrections
with sound exactly like the record. at the end of the first line the original,
the music reads 6-5-4 2h3-2h3, and it should be 6-5-3 2h3-2h3. The ???????????
section when the riff goes to a palm-muted A should go
e|-------------------
b|-------------------
g|-------------------
D|---2-0-------------
A|-------3-2~~------- ( the ~~ stuff is slight vibrato)
E|-------------3p2---
(flat tuning)
Also I don't know how to write it exactly, but at the end of the song, when
Phil Anselmo screams "riot" the riff previously written is almost right, but
the first sequence of 0-0-0-0 on the E-string is longer than the rest, an
extra pick or two. Hope this is useful to someone

Pulling and punching the rest of duration, no one can piss on this
***DETERMINATION***


Ваше мнение



Капча