Author/Artist: Pantera
Title: Suicide Note Part 1
Album: Trendkill
Transcribed by: Mike
Drop D Tuning
1:02 goes by before the guitar comes in

Intro
-||-----------------------------------|-----------------------------------|---
-||-----------------------------------|-----------------------------------|---
-||-----------------------------------|-----------------------------------|---
-||----3/5--3--2h3--2-------0-------0-|----3/5--3--2h3--2-------0-------0-|---
-||--------------------0h1-----1/3----|--------------------0h1-----1/3----|---
-||-0---------------------------------|-0---------------------------------|---
Riff A- - - - - - - - - - - - - - - - - - - - - - - - - - - - - - - - |
-|--------------------|--------------------------------------3-||-------------
-|--------------------|------------3-------------3-----3-----3-||-------------
-|--------------------|-9/10--7/9-----5/7---3/5-----3-----3----||-------------
-|--------------------|----------------------------------------||-------------
-|--------------------|----------------------------------------||-------------
-|--------------------|----------------------------------------||-------------
Play Riff A
Verses 1+2
-||------------------------------------|-------------------------------|------
-||--2-----2--2--0---0--2------2--2--0-|-2-----2---0---2---2---2--0--0-|------
-||*-0-----0--0--0---0--0------0--0--0-|-0-----0---0---0---0---0--0--0-|------
-||*-0--0--0-----0------0---0--0-----0-|-0--0--0---0---0---0---0--0--0-|------
-||--5--5--5-----5------5---5--5-----5-|-5--5--5---5---5---5---5--5--5-|------
-||--5--5--5-----5------5---5--5-----5-|-5--5--5---5---5---5---5--5--5-|------
Rhy. Fig. 1
-|-----------------------------------|-----------------------------------|----
-|-----------------------------------|-----------------------------------|----
-|-------------------------0---------|-------------------------0---------|----
-|----4/5--4--2/4--2-------0-------0-|----4/5--4--2/4--2-------0-------0-|----
-|--------------------0h2-----2/4----|--------------------0h2-----2/4----|----
-|-0---------------------------------|-0---------------------------------|----
End Rhy. Fig. 1
Pre Chorus
-|-------------------------------------||-------3---------------3-----------|-
-|-------------------------------------||-------3---------------3-----------|-
-|-------------------------------------||-------0---------------0h2---------|-
-|-------------------------------------||-0--0--0----0--0----0--0----2b-----|-
-|-------------------------------------||-----------------------------------|-
-|-------------------------------------||-3--3-------3--3----3--3----3b-p-2-|-
Play Rhy. Fig. 1
-|----------------------------------|-------3----------------3--3---------|---
-|----------------------------------|-------3----------------3--3---------|---
-|--------------------------------0-|-------0---0------------0--0h2-------|---
-|----4h5--4h5--2------4h5--4--2--0-|-0--0--0---0--0---0--0--0--0---2b----|---
-|----------------------------------|-------------------------------------|---
-|-0---------------0--------------3-|-3--3---------3---3--3---------3b-p2-|---
Chorus
-|-----------------2---------------------||-2--2--2--2----------------------|-
-|-----------------3---------------------||-3--3--3--3-----3--3--3--3--3--3-|-
-|-----------------2---------------------||-2--2--2--2-----0--0--0--0--0--0-|-
-|----4h5--4p0--2--0---------------------||-0--0--0--0--0--0--0--0-----0--0-|-
-|---------------------------------------||-0--0----------------------------|-
-|-0-------------------------------------||-0--0--------3--------2-----2--2-|-
Rhy. Fig. 2
-|----2----2--------------------|----2---2---2--2---------------------|-------
-|----3----3-----3---3--3--3--3-|----3---3---3--3--3--3---3--3--3---3-|-------
-|----2----2--2--0---0--0--0--0-|----2---2---2--2--0--0---0--0--0---0-|-------
-|-0--0----0--0--0---0-----0--0-|-0--0---0---0--0--0--0---0--0--0---0-|-------
-|-0-------0--------------------|-0------0----------------------------|-------
-|-0-------0-----2---------3----|-0------0---------3---------2--------|-------
Riff A- - - - - - - - - - - - - -
-|-2--2---2--2---2----------------------||----------------------------------|-
-|-3--3---3--3---3--3--3--3----3---3--3-||----------------------------------|-
-|-2--2---2--2---2-----0--0----0---0--0-||----------------------------------|-
-|-0--0---0--0---0-----0--0----0---0--0-||----------------------------------|-
-|-0---------0--------------------------||----------------------------------|-
-|-0---------0---------2-------3--------||----------------------------------|-
End Rhy. Fig. 2 Play Riff A
|-1(con't)- - - - - - - - - - - - - - - - - - - - - - - - - - - - - - - |
-|----------------------------------|----------------2---------------------||-
-|----------------------------------|----------------3---------------------||-
-|-------------------------0--------|----------------2--------------------*||-
-|----3/5--3--2/3--2-------0------0-|----4h5--3---2--0--------------------*||-
-|--------------------0h1-----1/3---|--------------------------------------||-
-|-0--------------------------------|-0------------------------------------||-
|-2- - - - - Outro
-|------------------||----------------||------------------------------------|-
-|------------------||----------------||------------------------------------|-
-|------------------||----------------||------------------------------------|-
-|------------------||----------------||------------------------------------|-
-|------------------||----------------||------------------------------------|-
-|------------------||----------------||------------------------------------|-
Play Rhy. Fig. 2 Play Riff A 2X Play Riff A 4 X (till end)
-|-------------------------------|---------------------------|----------------
-|-------------------------------|---------------------------|----------------
-|-----7-vvvvvvvvv5vvvvvv\-9b--r-|---------9b-r--------------|----------------
-|---x---------------------------|-9vvvvvv------8vvvvvvvvvp5-|----------------
-|-x-----------------------------|---------------------------|----------------
-|-------------------------------|---------------------------|----------------
PH
----------------------|-------------------|-1----------||---------------------
-------------------8b-|-------------------|-3----------||---------------------
-5-/7--7vvvvvv-5---9b-|---------9-----4*b-|-2----------||---------------------
----------------------|-9vvvvvv----8------|-0----------||---------------------
----------------------|-------------------|-0----------||---------------------
----------------------|-------------------|-0----------||---------------------
PH *w/ bar


Ваше мнение



Капча