From: [email protected]
[email protected]---------
Here's some Pantera tab from their latest album, "Far Beyond Driven".
For the best sound on this tune, I suggest heavy distortion, some chorus
to open up the distortion, and putting the pickup switch to the neck
position for the heaviest chunk possible. Other than that, it's up to
you! Any questions, comments, or suggestions may be sent to
[email protected] Good luck!
"Strength Beyond Strength"
by Pantera
Tune all guitars down 1/2 step
Intro
-----
~~~~~
-----------------------|--------------------------------------------------
-----------------------|--------------------------------------------------
-----------------------|----2---2-----------2-------2---------------------
-----------------------|----2---2-----------2-------2---5-----------------
--7\6--6--6\5--5--5\4--|----0---0-----------0-------0---5-----------------
--5\4--4--4\3--3--3\2--|------------1-------------------3-----------------
~~~~~~
---------------------------------------|----------------------------------
---------------------------------------|----------------------------------
--2----2-------------------------------|--2---2----------2---2------------
--2----2-------------------------------|--2---2----------2---2--5---------
--0----0----------7\6--6--6\5--5--5\4--|--0---0----------0---0--5---------
------------1-----5\4--4--4\3--3--3\2--|----------1-------------3---------
--------------------------------------------------------------------------
--------------------------------------------------------------------------
--2---2-------------------------------------------------------------------
--2---2-------------------------------------------------------------------
--0---0-------7--8-8--7--8-8--7--8-8--------------------------------------
----------1---5--6-6--5--6-6--5--6-6--------------------------------------
'Pre-Chorus'
------------
---------P.M.-------- -----P.M.-----
-------------------------------------------------------------------------
-------------------------------------------------------------------------
-------------------------------------------------------------------------
-------------------------------------------------------------------------
--4--4--4--3-------------------------6--6--6--3--------------------------
--2--2--2--1--1-1-1-1-1-1-1-1-1-1-1--4--4--4--1--1-1-1-1-1-1-1-----------
----------------------------------P.M.----------------------------------
-------------------------------------------------------------------------
-------------------------------------------------------------------------
-------------------------------------------------------------------------
-------------------------------------------------------------------------
---------4-----6--3-----4-4-4-3-------------------------6-6-6-3----------
---3--6-----4-----------2-2-2-1--1-1-1-1-1-1-1-1-1-1-1--4-4-4-1-1-1-1-1--
-----P.M.-----
-------------------
-------------------
-------------------
-------------------
---------2-2-2---2-
--1-1-1--0-0-0---0-
Interlude
---------
---------------------------------------
---------------------------------------
---------------------------------------
--------------------------------------- play 6 times
---------------------------------------
-0h1-1--0h1-1--0h1--2p1-1-1--2p1-1-1---
After playing Interlude 6 times, play 'Pre-Chorus' again
Second Interlude
----------------
-------------------------------------
-------------------------------------
-------------------------------------
---4--2--4-----4---5---(5)-----------
---2--0--2-----2---3---(3)-----------
Pre-Solo
--------
Note: Follows the Second Interlude
A.H.
----all use tremolo bar----
~~~~~~~~~~~~~
-----------------------------------------------------
-----------------------------------------------------
---12------------------------------------------------
--------------------3\------3/4---------------------- repeat 12 times
--------------------3\------1/4----------------------
--------------------1\------1/2----------------------
Note: strike this F
chord when bar
is down and
release up to F#
chord
Solo
----
Use harmonizer through entire solo with bar
|
|
-------------------------------------------------------------------------
------------------------------------------------------------------4------
-----------------4^(1/2)release--------------------------------------5\--
----6--------5-6-----------------------------------------------/5--------
-------------------------------------6---------------6-----5-6-----------
-------------------------------------------------------------------------
~~~~~~~
-----------|-------------------------------------------------------------
-----------|-------------------------------------------------------------
--(5)------|--/11--10----------------------/12--11-----------------------
-----------|-----------11--10-----------------------12--11---------------
-----------|-------------------10-9-10----------------------11--10--11---
-----------|-------------------------------------------------------------
---------------------------------------------------|---------------------
---------------------------------------------------|-------8^(1/2)---6---
----13--12--------------------13-12----------------|--7------------------
------------13--12-------------------13-12---------|-----6---------------
--------------------11-12-------------------11-12--|---------------------
---------------------------------------------------|---------------------
-----------------|-------------------------11-13p12--13-16p13p12--16p15--
------11^(1/2)---|------------12-13-12-13--------------------------------
-----------------|--13-12-13---------------------------------------------
---9-------------|-------------------------------------------------------
-----------------|-------------------------------------------------------
-----------------|-------------------------------------------------------
---16--19p16p15--19^(1)-----
----------------------------
----------------------------
----------------------------
----------------------------
----------------------------
Post-Solo
---------
Lyrics: Hail, to the new kings...
-----P.M.------
--------------------------------
--------------------------------
--------------------------------
-------------------------------- repeat as needed
--4--2--4----4----5-----(5)-----
--2--0--2----2----3-----(3)-----
Finish out song with Interlude section followed by 'Pre-Chorus' section
|---------------------------------------------------------------------|
| | "Got sh*t on, p*ssed on, |
| Steve Mueller | spit on, stepped on, |
| Arizona State University | f*cked with, pointed at |
| Email: [email protected] | by lesser men." |
| | - "A New Level", Pantera |
|----------------------------------|----------------------------------|




Ваше мнение



Капча