Song: Strength Beyond Strength
Tab by: Nick DiMaria
Written by: Pantera

Intro 1,2.___________ 3.___________
G|--------------------------------|-------------|---------------|
D|:-------------------------------|------------:|---------------|
A|:----------------3-3------------|------------:|---------------|
E|--5-5--1-1--5-5-------5-5--1-1--|--5/4/3/2/1--|--5/6-5/6-5/6--|

Verse x2 1.________
2.____________
G|------------------------------------------------------|-----------|---------------|
D|:----------------------------------------------------:|-----------|---------------|
A|:-------------------------------------------4---3-6--:|-----------|---------------|
E|--2-2-2-1-1-1-1-1-1-1-4-4-4-1-1-1-1-1-1-3-6---4-------|--5-5-5-5--|--5/6-5/6-5/6--|

Bridge
G|-----------------------------------|
D|:---------------------------------:|
A|:---------------------------------:|
E|--0-1-1-0-1-1-1-1-1-1-2-1-1-2-1-1--|

Pre-solo and during solo
G|-------------|
D|:-----------:|
A|:-----------:|
E|--1-0-1-1-2--|

After last part and immideately before solo
G|--------------|
D|:------------:|
A|:------------:|
E|--12/0--0/12--|

Post solo
G|-------------|
D|:-----------:|
A|:-----------:|
E|--0-0-0-1-2--|

Outro
G|-----------|-----------|
D|-----------|-----------|
A|-----------|-----------|
E|--5-5-5-5--|--5-5-5-5--|

Order of Riffs

Intro x 4
Verse x 2
Rest
Verse x 2
Bridge x 8
Pre-solo x 21
After last... x 7
Solo x 16
Post-solo x 5
Bridge x 3
Verse x 4
Outro x 1

E-mail comments questions and other shit to [email protected]
Get Your Private, Free Email at http://www.hotmail.com


Ваше мнение



Капча