From [email protected] Wed Jan 29 11:58:33 1997
Date: Sun, 26 Jan 1997 18:33:37 +6
From: Pete Farrell
To: [email protected]
Subject: TAB: Shedding Skin by Pantera
"Shedding Skin" by Pantera, off of Far Beyond Driven
Tune in E-flat Transcribed by Yourmother(My way to play it)
Rhy. 1 x3
e:---------------------------|--------------------------------|
B:---------------------------|--------------------------------|
G:--------------------------.|--------------------------------|
D:--------------------------.|--------------------------------|
A:--------------7-7----------|-2-2-----2-2-----1-1-----0-0----|
E:-0-0-3--7--8-------8--7--3-|------3-------3-------2-------1-|
x x x x x x x x x x x x x x x x x x x x x x
(This part was taken from Matt Sei
(overlap into verse) Verse (Flange)Let ring
e:-------------------|---------0----------------0-------|
B:-------------------|-----------3----------4-----4-----|
G:-------------------|.------0-----0----------0-----0---|
D:-------------------|.----4---------4----5-----------5-|
A:-2--fade-----------|---2--------------3---------------|
E:-0-----------------|-0--------------------------------|
fert's transcription.)
x4 Bridge
e:---------0--------------------|-----------------|---------------|
B:-----------2------------------|-----------------|---------------|
G:-------0-----0-----------7h--.|.----------------|--------------.|
D:-----3---------3------7h-----.|.----------------|--------------.|
A:---1---------------7h---------|-----------------|---------------|
E:-0---------------0------------|-0-0-0-0-0-0-0-0-|-0-0-0-0-1/3-0-|
x x x x x x x x x x x

e:-----------------|---------------|-----------------|
B:-----------------|---------------|-----------------|
G:-----------------|---------------|-----------------|
D:-----------------|---------------|-----------------|
A:-----------------|---------------|-----------------|
E:-0-0-0-0-0-0-0-0-|-0-0-0-0-3/6-0-|-0-0-0-0-0-0-0-0-|
x x x x x x x x x x x x x x x x x x
x4 Bridge 2 (Flange) Fill 1
e:--------------------------------|------------------|----------------|
B:--------------------------------|------------------|----------------|
G:-------------------------------.|------------------|----------------|
D:-------------------------------.|-7---7--6---------|-7---7--6-------|
A:--------------------------------|-5---5--4---------|-5---5--4--/13~-|
E:-0-0-0-0-7-hb--r-hb-r-hb-r-/3p0-|------------------|----------------|

Interlude Rhy. 1 Fill 2 Interlude Rhy. 2
e:----------------|-----------|-----------------------|
B:----------------|-----------|-----------------------|
G:----------------|-----------|-----------------------|
D:----------------|-----------|-----------------------|
A:----------------|-----------|-----------------------|
E:-6~-3-6-3-6-0-2-|-6~-3-6-8~-|-6~-3-6-3-6-7~-4-7-4-7-|
x x x x x x x x x x x x x x x x

e:-----------------------|-------------------|---------------------|
B:-----------------------|-------------------|---------------------|
G:-----------------------|-------------------|---------------------|
D:-----------------------|-------------------|---------------------|
A:-----------------------|-------------------|--------3-3-3--2-2-2-|
E:-8~-5-8-5-8-9~-6-9-6-9-|-10~-7-10-7-10-6-4-|-6~-3-6-2-2-2--1-1-1-|
x x x x x x x x x x x x x x x x

Interlude Rhy. 3 Interlude Rhy. 4
e:-------------------|---------------------|-------------------|
B:-------------------|---------------------|-------------------|
G:-------------------|---------------------|-------------------|
D:-------------------|---------------------|-------------------|
A:-2-------7----7--7-|-2-------10----10--7-|-4-------9----9--9-|
E:-0-0-0-0----0----6-|-0-0-0-0-----0-----6-|-2-2-2-2----0----8-|
x x x x x x x x x x x x

Fill 3 Post-Solo Rhy. 1
e:---------------------|----------|Solo1-----|---------------------|
B:---------------------|----------|Fill-3----|---------------------|
G:---------------------|----------|Interlude-|---------------------|
D:---------------------|----------|Fill-3----|---------------------|
A:-4-------12----12--9-|-2-2--2-2-|Solo-2----|-2-------7--2-2--2-2-|
E:-2-2-2-2-----0-----8-|-0-0--0-0-|Fill-3----|-0-0-0-0-6--0-0--0-0-|
x x x x x x x x x x x x x x x

Post-Solo Rhy. 2
e:----------------------------|--------|
B:----------------------------|--------|
G:----------------------------|-Fill-3-|
D:----------------------------|--------|
A:-2-------7--2-2-2-2-2-2-2-2-|--------|
E:-0-0-0-0-6--0-0-0-0-0-0-0-0-|--------|
x x x x x x x x x x x




Ваше мнение



Капча