Song: Shedding Skin
Album: Far Beyond Driven
Artist: Pantera
Tabbed by the stinky bum rat


This is taken from the book so it should be right.


Normal tuning


Key: P.m=Palm Mute
N.H=Natural Harmonic
/=slide up
=slide down
b(1)=bend one step
b(1/2)=bend half a step
b(1 1/2)=bend one an a half steps
r=release bend
T.p=Tremelo Pick
h=Hammer-on
p=pull-off
B.D=Bar Drive
~~=vibrato
S.H=semi harm
gb=gradual bend


intro and chorus:

riff 1a, 3 times riff 1b
|--------------------------| |----------------------------|
|--------------------------| |----------------------------|
|--------------------------| |----------------------------|
|-------------2-2----------| |----------------------------|
|-------2--3-------3--2----| |-2-2----2-2----1-1----0-0---|
|-0-0-3------------------3-| |-----3------3------2------1-|
P.m........................ P.m..........................


Verses 1&2:
riff 2
Let ring.............................................|N.H.|
|---------0---------------0---------------0---------------|
|-----3-----3---------4-----4---------2-----2-------------|
|-------0-----0---------0-----0---------0-----0---------5-|
|---------------4---------------5---------------3-----5---|
|---2---------------3---------------1---------------0-----|
|-0---------------0---------------0---------------0-------|


riff 3a, 2 times riff 3b
|------------------------------| |------------------------------------|
|------------------------------| |------------------------------------|
|------------------------------| |------------------------------------|
|-----------------2------------| |-------------2----------------------|
|------------------------------| |-----------------------2b-rbrbr-----|
|-0-0-0-0-0-0-0-0----0-0-3/5-0-| |-0-0-0-0-0-0---0-0-3/5---------3--0-|

In riff 3b, the last 3 is a 1 on the second time and the 0 is a 1 on the
last time.
All the bends are 1/2 a step.

riff 4
|---------------------|
|--6---------5-----4--|
|--3------------------|
|--0---------0-----0--|
|------------0--------|
|------------------4--|


play the chorus and the verse again.


riff 5a, 17 times
|--------------------------|
|--------------------------|
|--------------------------|
|--------------------------|
|--1h2p1---1-----1---------|
|--------3-----3-----0-3---|
P.m..............|


riff 5b
|--------------------------------------------------------------------------------------|
|--------------------------------------------------------------------------------------|
|--------------------------------------------------------------------------------------|
|--------------------------------------------------------------------------------------|
|-2h3p2---2------3h4p3---3------4h5p4---4------5h6p5---5----------2h3p3---2--7--5--4--3|
|-------4---2-5--------5---3-6--------6---4-7--------7---7-6-5-3--------5----5--3--2--1|


verse 3:
riff 6a riff 6b
|---------------------------| |------------------------------|
|---------------------------| |------------------------------|
|----------93/9--3----3--3-| |----------123-12---3----3--3-|
|-----------------3----3--3-| |--------------------3----3--3-|
|----------71/7--1----1--1-| |----------101-10---1----1--1-|
|-0-0-0-0---------1----1--1-| |-0-0-0-0------------1----1--1-|
P.m......| P.m......|


play riff 6a and 6b again.


riff 7a riff 7b
|----------------------------| |----------------------------|
|----------------------------| |----------------------------|
|---------113/11--5----5--5-| |---------145/14--5----5--5-|
|------------------5----5--5-| |------------------5----5--5-|
|----------91/9---3----3--3-| |---------123/12--3----3--3-|
|-2-2-2-2----------3----3--3-| |-2-2-2-2----------3----3--3-|
P.m......| P.m......|


play riff 6a and 6b again


riff 8
|------------|
|------------|
|------------|
|------------|
|-X-X---X-X--|
|-X-X---X-X--|



Guitar solo 1:
|-------------------------------------------------------------------------------------------|
|-------------------------------------------------------------------------------------------|
|-------------------------------12----14----12-14b-r-p12----14----12------------------------|
|----------12----14----12-13-14----14----14--------------14----14----14p12------------------|
|-13-13-14----14----14-----------------------------------------------------1412p10-7-------|
|-------------------------------------------------------------------------------------10~~~~|
P.m.........................................|


|-17-12----12h18----12-19----------------------------------------|
|-------15-------15-----------17------15------13p12--------------|
|--------------------------15----15-16--16p14-------15p14p1211--|
|----------------------------------------------------------------|
|----------------------------------------------------------------|
|----------------------------------------------------------------|


|------------------------------------------------|
|-12p11p10----------11p10p9----------------------|
|----------13p12p10---------12p11-9/115/125/13|
|------------------------------------------------|
|------------------------------------------------|
|------------------------------------------------|


S.H
|---------17b(1)-14-------14-----------------------------------------|
|--/14-17----------17p14----17p16-----17-1614----16----16gb(1/2)----|
|----------------------------------16----------14----14--------------|
|--------------------------------------------------------------------|
|--------------------------------------------------------------------|
|--------------------------------------------------------------------|



|-----------------------------------------|
|---16---18--14---------------------------|
|---------------16------------------------|
|------------------16---------------------|
|----------------------15~~~~~~~~~~~~~15--|
|-----------------------------------------|



|----------------------------------------------18/19--X--13/16-X--19b(2)~~~~~~~~~~~~~~-|
|--/15---/15---/15---/15----/15---16--16-/17-X-17/18--X--12/15-X-----------------------|
|--/16---/16---/16---/16----/16---14--14-/15-X-----------------------------------------|
|--------------------------------------------------------------------------------------|
|--------------------------------------------------------------------------------------|
|--------------------------------------------------------------------------------------|
T.p T.p T.p T.p


play riff 8 then play verse 3


Interlude:

Gtr.1 S.H..............................................
||------------------------------------------------------|
||------------------------------------------------------|
||---------------12--------------------12---------------|
||----------/14------13~~~~~------/14------13~~~~~------|
||------------------------------------------------------|
||-----0-----------------------0------------------------|
|
|
|Gtr.2
||------------------------------------------------------|
||------------------------------------------------------|
||------------------------------------------------------|
||---------------5---------------------5----------------|
||-------/7----------6~~~~~-------/7-------6~~~~~~------|
||-----0----------------------0-------------------------|



Gtr.1 S.H................................................
||----------------------------------------------------------------|
||----------------------------------------------------------------|
||----12--1211------11--1110------10--109------9~~~~~~---------|
||---------------12-------------11------------10------------------|
||----------------------------------------------------------------|
||----------------------------------------------------------------|
|
|
|
|Gtr.2
||----------------------------------------------------------------|
||----------------------------------------------------------------|
||----------------------------------------------------------------|
||-----5---54--------4---43--------3---32------2~~~~~~---------|
||----------------5--------------4-------------3------------------|
||----------------------------------------------------------------|


Gtr.1&2 S.H.........................................
|---------------------------------------------------|
|---------------------------------------------------|
|--------2b(1)-2b(1)---2b(1)---2b(1)--3b(1)--3b(1)--|
|---------------------------------------------------|
|---------------------------------------------------|
|---------------------------------------------------|



Gtr.1&2 S.H................ B.D B.D
||-----------------------------------------------------------------------------|
||-----------------------------------------------------------------------------|
||-------3b(1)--------------3b(1)-------0------------------------------------|
||---------------------------------------------------------------------------|
||---------------------------------------------------------------------------|
||---------------------------------------------------------------------------|
|
|
|
|Gtr.3
||-----------------------------------------------------------------------------|
||-----------------------------------------15-17-19-15h17h19-15-17-19-15h17h19-|
||-----13-14-17-13h14h17-13-14-17-14h16h18-------------------------------------|
||-----------------------------------------------------------------------------|
||-----------------------------------------------------------------------------|
||-----------------------------------------------------------------------------|
P.m.....| P.m....|


Guitar solo 2
Gtr.3
|-------------------------------------------------------------------------|
|-------------------------------------13-14-17-13h14h17-13-14-17-13h14h17-|
|-13-14-17-13h14h17-13-14-17-13h14h17-------------------------------------|
|-------------------------------------------------------------------------|
|-------------------------------------------------------------------------|
|-------------------------------------------------------------------------|
P.m.....| P.m....| P.m....| P.m....|


|-13--------13-------13-14-17-13h14h17-13-15-17-13h14h17-13-15-17-13h14h17--|
|----14-17-----14h17--------------------------------------------------------|
|---------------------------------------------------------------------------|
|---------------------------------------------------------------------------|
|---------------------------------------------------------------------------|
|---------------------------------------------------------------------------|


hold bend..|
|---19b(1/2)--19-------------------------------------------------------------------|
|--------------------------19b(1-1/2)-19b(1-1/2)-19b(1-1/2)-19b(1-1/2)-19b(1-1/2)--|
|----------------------------------------------------------------------------------|
|----------------------------------------------------------------------------------|
|----------------------------------------------------------------------------------|
|----------------------------------------------------------------------------------|
T.p

play riff 8 then the outro


outro:
riff 9, 4 times
|-----------------------------|
|-----------------------------|
|------------3----------------|
|------------3----------------|
|------------1----X-X---X-X---|
|--0-0-1-1---1----X-X---X-X---|
P.m.....|



riff 10, 9 times
|------------------------------------|
|------------------------------------|
|------------3-----------------------|
|------------3-----------------------|
|------------1----X-X-X-X-X-X-X-X----|
|--0-0-1-1---1----X-X-X-X-X-X-X-X----|
P.m.......| P.m.............|


Then riff 9 once.




Ваше мнение



Капча