================================================================================
Title : Shattered
Artist : Pantera
Album : Cowboys From Hell
Transcribed by : By DimeBolt ([email protected])
[email protected]===============
Triplet feel End triplet feel
1||--------------------------||-----------------|-------------------------||
2||--------------------------||-----------------|-------------------------||
3||--------------------------||-----------------|-------------------------||
4||--------------------------||-9-7-9-----2--0--|-2-----------------------||
5||-444444444444444444444444-||-7-5-7-----2--0--|-2-------22-2-2-2-2-22-2-||
6||--------------------------||-----------0-----|-0-------00-0-0-0-0-00-0-||
Verse
1||-----------------|-----------------||------------------|------------------||
2||-----------------|-----------------||------------------|------------------||
3||----2-4-5-4-2----|-----------------||-6--6-7-6---------|-6--6-7-6---------||
4||-234-4-4-4-4-4~--|----2-4-5-4-2----||-6--6-6-6--647646-|-6--6-6-6---------||
5||-----------------|-2340-2-3-2-04---||-4444444444-------|-4444444444444444-||
6||-----------------|-012---------2---||------------------|------------------||
Let ring Triplets Chorus
1||-------------0---||------------------||---------------------||-----------------|
2||------------0----||------------------||---------------------||-----------------|
3||-----------1-----||-6--6-7--6--6-7---||---------------------||----4-6-7-6-4----|
4||-2--------2------||-6--6-6--6--6-6---||-4-----------4-------||-456-6-6-6-6-6~--|
5||-2-------2-------||-4444444444444444-||-2222222222222-------||-----------------|
6||-0---------------||------------------||---------------------||-----------------|
With wierd effect Last ending
1||-----------------||--------------||-----------|---------||-------------------||
2||-----------------||--------------||-----------|---------||-------------------||
3||-----------------||--------------||-5---------|---------||-------------------||
4||----4-6-7-6-4----||--------------||-5---------|-4-------||-------------------||
5||-4562-4-5-4-26---||--4-----4-----||-3-----320-|-4-------||---22-33-44-55-66--||
6||-234---------4---||-02-----2-----||-----------|-2-------||-----3--4--5--6--7-||
Solo
1||------------------|------------------|------------------|-----------------|
2||------------------|------------------|------------------|-----------------|
3||-6------6---------|-6---6---6---6----|-6------6---------|-6---6-----------|
4||-6------6---------|-6---6---6---6----|-6------6---------|-6---6---4--5--6-|
5||-4-444444--444444-|-4--44--44--44--4-|-4-444444--444444-|-4--44-442--3--4-|
6||------------------|------------------|------------------|-----------------|
1||------------------|------------------|------------------|------------------||
2||------------------|------------------|------------------|------------------||
3||-8------8---------|-8---8---8---8----|-8------8---------|-8---8------------||
4||-8------8---------|-8---8---8---8----|-8------8---------|-8---8---10--9--8-||
5||-6-666666--666666-|-6--66--66--66--6-|-6-666666--666666-|-6--66-66-8--7--6-||
6||------------------|------------------|------------------|------------------||
Triplet feel End triplet feel
1||--------------------------||-------------------|-----x-x------------------||
2||--------------------------||-------------------|-----x-x------------------||
3||--------------------------||-------------------|--------------------------||
4||--------------------------||-11-9-11-----------|--------------------------||
5||-666666666666666666666666-||--9-7--9-----4--2--|-4--------44-4-4-4-4-44-4-||
6||--------------------------||-------------2--0--|-2--------22-2-2-2-2-22-2-||
Ending Chord under end solo
1||-----------------|------------------------|-------||
2||-----------------|------------------------|-------||
3||-----------------|------------------------|-------||
4||-----------------|------------------------|-4-----||
5||----5-7-----4-6--|----2-4-----1-3-4-3-1---|-4-----||
6||-567-7---456-6---|-234-4---123-3-3-3-3-3--|-2-----||




Ваше мнение



Капча