Author/Artist: Pantera
Title: Sandblasted Skin
Album: G.S.T.K.
Transcribed by: Adam Watson
Email: [email protected]
tune to
6-G
5-G
4-C
*tune 6 one octave lower than 5
these are the main riffs of the song.
------|---------------------------------------------|-------------------------|
------|---------------------------------------------|-------------------------|
------|---------------------------------------------|-------------------------|
------|---------------------------------------------|-------------------------|
------|-3------3--------3--------3------------------|-------------------------|
-15--|----5b------5b-------5b-------5b--3---0------|-------------------------|
-----------------------------------------------------|------------------------|
-----------------------------------------------------|------------------------|
-----------------------------------------------------|------------------------|
-----------------------------------------------------|------------------------|
-3---------3----------3----------3-------------------|------------------------|
------5b--------5b---------5b---------5b-----3---0---|------------------------|
-------------------|-----------------|---------------|-------------------------|
-------------------|-----------------|---------------|-------------------------|
-------------------|-----------------|---------------|-------------------------|
-------------------|-----------------|---------------|-------------------------|
-------------------|-----------------|---------------|-------------------------|
--0----0---0---5h3-|--0---0--0---5h3-|-0---0--0--5h3-|--5b---------------------|(5b)-(5b)-(5b)-(5b)
Bend up and down on this..
-------------------------|----------------------------------------------------|
-------------------------|----------------------------------------------------|
-------------------------|----------------------------------------------------|
-2----2-----54-----2----|--/8-----7-----------------------------------------|
-0----0-----32-----0----|--/6-----5-----------------------------------------|
-0----0-----32-----0----|--/6-----5-----------------------------------------|
*play twice then play this




Ваше мнение



Капча