Kick Ass Song!!!!!!!!!!
Intro
D--------------------------------------------------------------|---------|
A--------------------------------------------------------------|---------|
F-----------------8^--(8)--------------------------------------|---------|
C---------------------------8^---------------------------------|-----%x2-|
G---------/6^--------------------7^---(7)----------------------|---------|
D----0---------------------------------------6^----------1^----|---------|
D----------------------------------|----------------------------------------|
A----------------------------------|----------------------------------------|
F----------------------------------|----------------------------------------|
C----------------------------------|----------------------------------------|
G----------------------------------|-7---5-----7----5^----------------------|
D-0-0-0---0-0-0---0-0-0---0-0-0----|--------7----7------7--6--5--3^--5^--3^-|
PM ........ ........ ........
D------------------------------|
A------------------------------|
F------------------------------|
C------------------------------|
G------------------------------|
D-----0---0---0----0---0---0---|
PM .......................
D---------------------------------------------|-------------------------|
A---------------------------------------------|-------------------------|
F---------------------------------------------|-------------------------|
C-------------5^--------------------5^--------|---5---------8----(8)---|
G---7---5--------7---5----7---5--------7--5---|---3---------6----(6)---|
D-----------7-----------------------7---------|---3---------6----(6)---|
End 1 End 2
D------------------------------------------------------|---------|----------|
A------------------------------------------------------|---------|----------|
F------------------------------------------------------|---------|----------|
C------------------------------------------------------|-5-4--4-|-4-3---3-|
G------------------------------------------------------|-5-4--4-|-4-3---3-|
D-0--6--0--3----5---0--6--0--3----5---0--6--0--3----5--|-3-2--2-|-2-1---1-|
PM.....................................................
Pre-chorus End 1 End 2
D------------------------------|--------------|-------|-------|
A------------------------------|--------------|-------|-------|
F------------------------------|--------------|-------|-------|
C------------------------------|--------------|-54-4-|-43-3-|
G------------------------------|--------------|-54-4-|-23-3-|
D--0--6--0--3--0--5--0----15--|--0-6-0-3-0-5-|-32-2-|-21-1-|
PM .................... ............
What is my name...
D-------------|-----------------------------------------------------|
A-------------|-----------------------------------------------------|
F-------------|-----------------------------------------------------|
C--5--------8-|-----------------------------------------------------|
G--5--------8-|------5--7--8--7~~-------5--7--8--7~~(7)-------------|
D--3--------6-|--0------------------0------------------1--1--0--(0)-|
D----------------------------------------------|
A----------------------------------------------|
F----------------------------------------------|
C-----------8--------------8-------------------|
G-----5--7-----------5--7----------------------|
D--0----------6---0------------6--(6)--1--1--0-|
Chorus End
D--------------|------------------------|---------------------------|
A--------------|------------------------|---------------------------|
F--------------|------------------------|---------------------------|
C--------------|-----4-2-4--------------|-----4-2-4/6-7-6-7/9-9^~~~-|
G--8--7--6--5--|-----------4-3-4--1-0-1-|---------------------------|
D--6--5--4--3--|-2-2--------------------|-2-2-----------------------|
D-------------------------|-----------------------|
A-------------------------|-----------------------|
F------3-2-3--------------|-3-2-3/4-6-4-6/8-8^~~~-|
C------------4-3-4--------|-----------------------|
G------------------4-3-4--|-----------------------|
D-2-2---------------------|-2-2-------------------|


Ваше мнение



Капча