regular people: PANTERA
transcribed by Michael Hungrige
tablature
explanation:
palm mute: pm.....
bend: ^
slide: / (toward headstock)
slide: // (toward bridge)
dead note: x
hammer on: h
pull off: p
pinch harmonic ()
intro
e[---------------------------------------
B[---------------------------------------
G[---------------------------------------
D[-2-2-2-2-2-2-2-2-2-2--2--2---2---2----2-
A[-2-2-2-2-2-2-2-2-2-2--2--2---2---2----2-
E[-0-0-0-0-0-0-0-0-0-0--0--0---0---0----0-
pm......................................
Riff 1
e[----------------------------------------------------------
B[----------------------------------------------------------
G[----------------------------------------------------------
D[----------------------------------------------------------
A[---------8p7--------7--------------7p5----5------------7h8
E[--0--0-0---- 0-0-7-8--8-5-6-0--0-0----00-5-6-6-2-3-00-0
pm... pm. pm... pm pm...
----------------------------------------------------]
----------------------------------------------------]
----------------------------------------------------]
-----------6-----7-----8-----5-----3-2--------------]
--------7--6-----7-----8-----5-----3-2--------------]
-0-0-7-8-8-4-0-0-5-0-0-6-0-0-3-0-0-1-0--------------]
pm.. pm.. pm.. pm..
Riff 2
e[----------------------------------------------------------
B[----------------------------------------------------------
G[----------------------------------------------------------
D[-2--2-2--2-2--2-2-2-----2--2-2--2-2--2-2-2-----2--2-2--2-2
A[-2--2-2--2-2--2-2-2--2/-2--2-2--2-2--2-2-2--4/-2--2-2--2-2
E[-0--0-0--0-0--0-0-0--3/-0--0-0--0-0--0-0-0--5/-0--0-0--0-0
pm.................. pm................... pm...........

-----------------------------------------]
-----------------------------------------]
-----------------------------------------]
-2-2-2----7--7-7-8--8-8-5--5-5-3-2-------]
-2-2-2-5/-7--7-7-8--8-8-5--5-5-3-2-------]
-0-0-0-6/-5--5-5-6--6-6-3--3-3-1-0-------]
...... pm.. pm.. pm..

Riff 3
e[----------------------------------------------------------
B[----------------------------------------------------------
G[----------------------------------------------------------
D[-----------------------2-----------------------2----------
A[-4-4-----5-5-----4-4---2-4-4-----5-5-----4-4---2-4-4-----5
E[-5-5-0-0-6-6-0-0-5-5-3-0-5-5-0-0-6-6-0-0-5-5-3-0-5-5-0-0-6
pm................... pm................... pm.......
------------------------------------------]
------------------------------------------]
------------------------------------------]
-------------2---------------------(5)----]
-5-----4-4---2-4-4-----5-5-----4-4---(7)--]
-6-0-0-5-5-3-0-5-5-0-0-6-6-0-0-5-5-3------]
........... pm...................




Ваше мнение



Капча