PSYCHO HOLIDAY - PANTERA
------------------------
Note lengths are written below the measures :
w - whole note
h - half note
q - quarter note
e - eight note
s - sixteenth note
t - thirty-second note
Rest are noted as capitalized note lengths ie:
W - whole rest
H - half rest
Q - quarter rest
E - eight rest
S - sixteenth rest
T - thirty-second rest
+ is used to show slurs between notes, eg slide up from 5 to 7 without
picking the 7 would be notated like :
|---5/7----
e+e
sliding up with picking the 7 would be notated like :
|---5/7----
e e
Notes without a note length are cue notes.
h - hammer on
p - pull off
b - bend (amount of bend above the measure)
r - release bend
x - muffled string
/ - slide up
- slide down
~ - vibrato (vib. above a measure means a more exaggerated vibrato)

PSYCHO HOLIDAY - GUITAR
-----------------------
16th note triplet feel ( s s = e s )
{3}
|-------------------------------------|-----|-----|-----||
|-------------------------------------|-----|-----|-----||
|-------------------------------------|-----|-----|-----||
|-------------------------------------|--|--|--||
|-------------------------------------|-----|-----|-----||
|-2-2-2-2-2-2-2-2-2-2-2-2-2-2-2-2-2-2-|-----|-----|-----||
s s s s s s s s s s s s s s s s s s
{ 3 } { 3 }
|---------------------|---------------------|---------------------|
|---------------------|---------------------|---------------------|
|---------------3-----|---------------2-----|---------------1-----|
|---------------3-----|---------------2-----|---------------1-----|
|---------------------|---------------------|---------------------|
|-4-4-4-4-4-4-4-------|-4-4-4-4-4-4-4-------|-4-4-4-4-4-4-4-------|
s s s s s s s e + h s s s s s s s e + h s s s s s s s e + h
{ 3 } { 3 } { 3 }
|---------------------|---------------------|---------------------|
|---------------------|---------------------|---------------------|
|---------------0-----|---------------3-----|---------------2-----|
|---------------0-----|---------------3-----|---------------2-----|
|---------------------|---------------------|---------------------|
|-4-4-4-4-4-4-4-------|-4-4-4-4-4-4-4-------|-4-4-4-4-4-4-4-------|
s s s s s s s e + h s s s s s s s e + h s s s s s s s e + h
{ 3 } { 3 } { 3 }
Harm
vib.
|---------------------|-------------||------------------------------------|
|---------------------|-------------||------------------------------------|
|---------------1-----|--5----------||----------------------------------7-|
|---------------1-----|-------------||-6-4--------------6-4-------------7-|
|---------------------|---------x--||-----6-5-4-5----------6-5-4-5-------|
|-4-4-4-4-4-4-4-------|-------------||-------------7-4--------------7-4---|
s s s s s s s e + h h. q s s s s s s s e. s s s s s s s s e
{ 3 } { 6 } { 6 }
9/8
|-----|-----|--------------------------------------||
|-----|-----|--------------------------------------||
|-----|-----|----------------------------------7---||
|--|--|-6-4--------------6-4-------------7---||
|-----|-----|-----6-5-4-5----------6-5-4-5---------||
|-----|-----|-------------7-4--------------7-4-----||
s s s s s s s e. s s s s s s s s e E
{ 6 } { 6 }
4/4
verse 1
|-------------------------------------|-----|-----|-----|-----|-----|
|-------------------------------------|-----|-----|-----|-----|-----|
|-------------------------------------|-----|-----|-----|-----|-----|
|-------------------------------------|--|--|--|--|--|
|-------------------------------------|-----|-----|-----|-----|-----|
|-0-0-0-0-0-0-0-0-0-0-0-0-0-0-0-0-0-0-|-----|-----|-----|-----|-----|
s s s s s s s s s s s s s s s s s s
{ 3 } { 3 }
|-----|-----|------------------------------------|
|-----|-----|------------------------------------|
|-----|-----|----------------------------------7-|
|--|--|-6-4--------------6-4-------------7-|
|-----|-----|-----6-5-4-5----------6-5-4-5-------|
|-----|-----|-------------7-4--------------7-4---|
s s s s s s s e. s s s s s s s s e
{ 6 } { 6 }
|-------------------------------------|-----|
|-------------------------------------|-----|
|-------------------------------------|-----|
|-------------------------------------|--|
|-------------------------------------|-----|
|-0-0-0-0-0-0-0-0-0-0-0-0-0-0-0-0-0-0-|-----|
s s s s s s s s s s s s s s s s s s
{ 3 } { 3 }
2/4
|------------------------------------|-----|-----|------------------|
|------------------------------------|-----|-----|------------------|
|----------------------------------7-|-----|-----|------------------|
|-6-4--------------6-4-------------7-|--|--|-6-4--------------|
|-----6-5-4-5----------6-5-4-5-------|-----|-----|-----6-5-4-5------|
|-------------7-4--------------7-4---|-----|-----|-------------7-4--|
s s s s s s s e. s s s s s s s s e s s s s s s s e.
{ 6 } { 6 } { 6 }
4/4 chorus Harm & bar
|-------------------||-----|-----|-----|-----|-----|-----|-----|-x---||
|-------------------||-----|-----|-----|-----|-----|-----|-----|-----||
|-----7-----7-7-----||-3---|-2---|-1---|-0---|-3---|-2---|-1---|-----||
|-----7-----7-7-----||-3---|-2---|-1---|-0---|-3---|-2---|-1---|-----||
|-------------------||-----|-----|-----|-----|-----|-----|-----|-----||
|-0-0---0-0---------||-----|-----|-----|-----|-----|-----|-----|-----||
e e e e e e e E Q w w w w w w w w
{ 3 } { 3 }
verse 2
|-------------------------------------|-----|-----|-----|-----|-----|
|-------------------------------------|-----|-----|-----|-----|-----|
|-------------------------------------|-----|-----|-----|-----|-----|
|-------------------------------------|--|--|--|--|--|
|-------------------------------------|-----|-----|-----|-----|-----|
|-0-0-0-0-0-0-0-0-0-0-0-0-0-0-0-0-0-0-|-----|-----|-----|-----|-----|
s s s s s s s s s s s s s s s s s s
{ 3 } { 3 }
|-----|-----|------------------------------------|
|-----|-----|------------------------------------|
|-----|-----|----------------------------------7-|
|--|--|-6-4--------------6-4-------------7-|
|-----|-----|-----6-5-4-5----------6-5-4-5-------|
|-----|-----|-------------7-4--------------7-4---|
s s s s s s s e. s s s s s s s s e
{ 6 } { 6 }
|-------------------------------------|-----|
|-------------------------------------|-----|
|-------------------------------------|-----|
|-------------------------------------|--|
|-------------------------------------|-----|
|-0-0-0-0-0-0-0-0-0-0-0-0-0-0-0-0-0-0-|-----|
s s s s s s s s s s s s s s s s s s
{ 3 } { 3 }
2/4
|------------------------------------|-----|-----|------------------|
|------------------------------------|-----|-----|------------------|
|----------------------------------7-|-----|-----|------------------|
|-6-4--------------6-4-------------7-|--|--|-6-4--------------|
|-----6-5-4-5----------6-5-4-5-------|-----|-----|-----6-5-4-5------|
|-------------7-4--------------7-4---|-----|-----|-------------7-4--|
s s s s s s s e. s s s s s s s s e s s s s s s s e.
{ 6 } { 6 } { 6 }
4/4 chorus
|-------------------||-----|-----|-----|-----|-----|-----|-----|
|-------------------||-----|-----|-----|-----|-----|-----|-----|
|-----7-----7-7-----||-3---|-2---|-1---|-0---|-3---|-2---|-1---|
|-----7-----7-7-----||-3---|-2---|-1---|-0---|-3---|-2---|-1---|
|-------------------||-----|-----|-----|-----|-----|-----|-----|
|-0-0---0-0---------||-----|-----|-----|-----|-----|-----|-----|
e e e e e e e E Q w w w w w w w
{ 3 } { 3 }
|-------------------||
|-------------------||
|-------------------||
|-6-4---------------||
|-----6-5-4---------||
|-----------7-4-----||
s s s s s s e E H
{ 6 }
solo full 1/2 full full
|-------0----------0----|-------0-3b---5b-----|
|-----0---3b-----0---2b-|-----0---------------|
|-0h1--------0h1--------|-0h1-----------------|
|-----------------------|---------------------|
|-----------------------|---------------------|
|-----------------------|---------------------|
s s s s q s s s s q s s s s q S e.+e E
full 1/2 1 1/2
|----------12--------------12-----|----------12-15b---15-----||
|-------12----15b-------12----14b-|-------12-------------14--||
|-12h13-----------12h13-----------|-12h13--------------------||
|---------------------------------|--------------------------||
|---------------------------------|--------------------------||
|---------------------------------|--------------------------||
s s s s q s s s s q s s s s q E s s+q
|-------------------------------------------------------15-17----15-17----|
|-------------------15-17----15-17----15-17-18-15-17-18-------18-------18-|
|-15-17-18-15-17-18-------18-------18-------------------------------------|
|-------------------------------------------------------------------------|
|-------------------------------------------------------------------------|
|-------------------------------------------------------------------------|
s s s s s s s s s s s s s s s s s s s s s s s s
{ 6 } { 6 } { 6 } { 6 }
full 2
|-15-17-18-17-17-18-17-18-17-18-17-15-15-17-18-17-15----15-18b--b-----|
|----------------------------------------------------18-----------x---|
|-------------------------------------------------------------------x-|
|---------------------------------------------------------------------|
|---------------------------------------------------------------------|
|---------------------------------------------------------------------|
s s s s s s s t t t t s t t s s s s s e e s +
{ 7 } { 7 }
|--------18-22-18----17-------------------18-22-18----------------------|
|-----20----------20----20-18----18----20----------20-20-18-18----18----|
|-(x)-------------------------19----19-------------------------19----19-|
|-----------------------------------------------------------------------|
|-----------------------------------------------------------------------|
|-----------------------------------------------------------------------|
+ e s s s s s s s s s s s s s s s s s s s s s s
{ 6 } { 7 } { 7 }
|---------------------------------------------------------------------||
|----18----20-18----18-22----18----18---------------------------------||
|-18----18-------19-------19----18----18----18----18------------------||
|----------------------------------------20----18----18----17----17~~-||
|-------------------------------------------------------20----20------||
|---------------------------------------------------------------------||
t t t t t t t t s s s s s s s s s s s s s q
{ 7 } { 6 }
full 1/2 full full
|----------12--------------12-----|----------12-15b---17b~-----|
|-------12----15b-------12----14b-|-------12---------------/17-|
|-12h13-----------12h13-----------|-12h13----------------------|
|---------------------------------|----------------------------|
|---------------------------------|----------------------------|
|---------------------------------|----------------------------|
s s s s q s s s s q s s s s q E q e
|----19-------18----22-17-------17-------19-------18-------17-------18-------|
|-20----19-20----20-------19-20----19-20----19-20----19-20----19-20----19-20-|
|----------------------------------------------------------------------------|
|----------------------------------------------------------------------------|
|----------------------------------------------------------------------------|
|----------------------------------------------------------------------------|
s s s s s s s s s s s s s s s s s s s s s s s s s
{ 6 } { 6 } { 7 } { 6 }
|-19-------18-------17-------18-------18b~~~-----||
|----19-20----19-20----19-------19------------x-||
|-------------------------19-------19------------||
|------------------------------------------------||
|------------------------------------------------||
|------------------------------------------------||
s s s s s s s s s s s s q. e
{ 6 } { 6 }
|-15-17-18-17-18-17-18-17-15-17-15----------15-17-15-17-15----------------
|----------------------------------18-18-17----------------18-18-17-15-17-
|-------------------------------------------------------------------------
|-------------------------------------------------------------------------
|-------------------------------------------------------------------------
|-------------------------------------------------------------------------
s s s s s s s s s s s s s s s s s s s t t t t t
{ 3 } { 7 } { 7 }
bar-------------------------
----------|------------------------------------------------|-/15~~-/15~~-|
-15-14-15-|-16-15-14-15-18-17-15-14-15-14-------x---------|---------------|
----------|-------------------------------17-16-----x--x-|---------------|
----------|------------------------------------------------|---------------|
----------|------------------------------------------------|---------------|
----------|------------------------------------------------|---------------|
t t t t t t t t t t t s s s s s+q q q h h
{ 3 } { 3 }
--------------| full full full
|----------------||--------17-20-----|-17-19-----17---------------------|
|---/13----~----||---20b--------20b-|-------20b----19-20-17------------|
|----------------||------------------|-----------------------18---------|
|----------------||------------------|--------------------------19------|
|----------------||------------------|----------------------------------|
|----------------||------------------|-----------------------------19~~-|
E q. + h E q.+q e e e e e e e e e e e e q
{ 3 } { 3 } { 3 } { 3 }
full full vib bar
|------------24b-|-~~----||
|---22b~---------|--------||
|----------------|--------||
|----------------|--------||
|----------------|--------||
|----------------|--------||
E q. + q E e + h + h
verse 3
|-------------------------------------|-----|-----|-----|-----|-----|
|-------------------------------------|-----|-----|-----|-----|-----|
|-------------------------------------|-----|-----|-----|-----|-----|
|-------------------------------------|--|--|--|--|--|
|-------------------------------------|-----|-----|-----|-----|-----|
|-0-0-0-0-0-0-0-0-0-0-0-0-0-0-0-0-0-0-|-----|-----|-----|-----|-----|
s s s s s s s s s s s s s s s s s s
{ 3 } { 3 }
|-----|-----|------------------------------------|
|-----|-----|------------------------------------|
|-----|-----|----------------------------------7-|
|--|--|-6-4--------------6-4-------------7-|
|-----|-----|-----6-5-4-5----------6-5-4-5-------|
|-----|-----|-------------7-4--------------7-4---|
s s s s s s s e. s s s s s s s s e
{ 6 } { 6 }
|-------------------------------------|-----|
|-------------------------------------|-----|
|-------------------------------------|-----|
|-------------------------------------|--|
|-------------------------------------|-----|
|-0-0-0-0-0-0-0-0-0-0-0-0-0-0-0-0-0-0-|-----|
s s s s s s s s s s s s s s s s s s
{ 3 } { 3 }
2/4
|------------------------------------|-----|-----|------------------|
|------------------------------------|-----|-----|------------------|
|----------------------------------7-|-----|-----|------------------|
|-6-4--------------6-4-------------7-|--|--|-6-4--------------|
|-----6-5-4-5----------6-5-4-5-------|-----|-----|-----6-5-4-5------|
|-------------7-4--------------7-4---|-----|-----|-------------7-4--|
s s s s s s s e. s s s s s s s s e s s s s s s s e.
{ 6 } { 6 } { 6 }
4/4 chorus Harm & bar
|-------------------||-----|-----|-----|-----|-----|-----|-----|-/x--/--||
|-------------------||-----|-----|-----|-----|-----|-----|-----|---------||
|-----7-----7-7-----||-3---|-2---|-1---|-0---|-3---|-2---|-1---|---------||
|-----7-----7-7-----||-3---|-2---|-1---|-0---|-3---|-2---|-1---|---------||
|-------------------||-----|-----|-----|-----|-----|-----|-----|---------||
|-0-0---0-0---------||-----|-----|-----|-----|-----|-----|-----|---------||
e e e e e e e E Q w w w w w w w w
{ 3 } { 3 }
harm------|
dive dive dive vib dive dive dive vib
|-------|-------|------|--------------|-------|-------|------|-/15~------||
|-11---|-10---|-9---|--------2~~~--|-11---|-10---|-9---|-----------||
|-------|-------|------|-2--3---------|-------|-------|------|-----------||
|-8----|-7----|-6---|--------------|-8----|-7----|-6---|-----------||
|-------|-------|------|--------------|-------|-------|------|-----------||
|-------|-------|------|--------------|-------|-------|------|-----------||
w w w e. s+e e + h w w w q Q H
( s s = s s )
outro
|---------------------------------|---------------------------------|
|---------------------------------|---------------------------------|
|---------------------------------|---------------------------------|
|---------------------------------|---------------------------------|
|-8-------8-------8-----8-------8-|-7-------7-------7-----7-------7-|
|-6-6-6-6-6-6-6-6-6-6-6-6-6-6-6-6-|-5-5-5-5-5-5-5-5-5-5-5-5-5-5-5-5-|
s s s s s s s s s s s s s s s s s s s s s s s s s s s s s s s s
|---------------------------------|---------------------------------|
|---------------------------------|---------------------------------|
|---------------------------------|---------------------------------|
|---------------------------------|---------------------------------|
|-6-------6-------6-----6-------6-|-5-------------------------------|
|-4-4-4-4-4-4-4-4-4-4-4-4-4-4-4-4-|-3-3-3-3-3-3-3-3-3-3-3-3-3-3-3-3-|
s s s s s s s s s s s s s s s s s s s s s s s s s s s s s s s s
|---------------------------------|---------------------------------|
|---------------------------------|---------------------------------|
|---------------------------------|---------------------------------|
|---------------------------------|---------------------------------|
|-8-------8-------8-----8-------8-|-7-------7-------7-----7-------7-|
|-6-6-6-6-6-6-6-6-6-6-6-6-6-6-6-6-|-5-5-5-5-5-5-5-5-5-5-5-5-5-5-5-5-|
s s s s s s s s s s s s s s s s s s s s s s s s s s s s s s s s
|---------------------------------|-----------------------|
|---------------------------------|-----------------------|
|---------------------------------|-----------------------|
|---------------------------------|-----------------------|
|-6-------6-------6-----6-------6-|-5--5--5-3--5--5--5-4--|
|-4-4-4-4-4-4-4-4-4-4-4-4-4-4-4-4-|-3--3--3-1--3--3--3-2--|
s s s s s s s s s s s s s s s s e e s e. e e s e.
|---------------------------------|---------------------------------|
|---------------------------------|---------------------------------|
|---------------------------------|---------------------------------|
|---------------------------------|---------------------------------|
|-8-------8-------8-----8-------8-|-7-------7-------7-----7-------7-|
|-6-6-6-6-6-6-6-6-6-6-6-6-6-6-6-6-|-5-5-5-5-5-5-5-5-5-5-5-5-5-5-5-5-|
s s s s s s s s s s s s s s s s s s s s s s s s s s s s s s s s
|---------------------------------|---------------------------------|
|---------------------------------|---------------------------------|
|---------------------------------|---------------------------------|
|---------------------------------|---------------------------------|
|-6-------6-------6-----6-------6-|-5-------------------------------|
|-4-4-4-4-4-4-4-4-4-4-4-4-4-4-4-4-|-3-3-3-3-3-3-3-3-3-3-3-3-3-3-3-3-|
s s s s s s s s s s s s s s s s s s s s s s s s s s s s s s s s
|---------------------------------|---------------------------------|
|---------------------------------|---------------------------------|
|---------------------------------|---------------------------------|
|---------------------------------|---------------------------------|
|-8-------8-------8-----8-------8-|-7-------7-------7-----7-------7-|
|-6-6-6-6-6-6-6-6-6-6-6-6-6-6-6-6-|-5-5-5-5-5-5-5-5-5-5-5-5-5-5-5-5-|
s s s s s s s s s s s s s s s s s s s s s s s s s s s s s s s s
|---------------------------------|-----------------------|
|---------------------------------|-----------------------|
|---------------------------------|-----------------------|
|---------------------------------|-----------------------|
|-6-------6-------6-----6-------6-|-5--5--5-3--5--5--5-4--|
|-4-4-4-4-4-4-4-4-4-4-4-4-4-4-4-4-|-3--3--3-1--3--3--3-2--|
s s s s s s s s s s s s s s s s e e s e. e e s e.
harm.
|-----------------|------------------/18--/x--|--------||
|-----------------|---------------------------|--------||
|-----------------|-------------/15-----------|--------||
|-5---5---5---5---|-8-------------------------|-8-5----||
|-5---5---5---5---|-8-------------------------|-8-5----||
|-3---3---3---3---|-6-------------------------|-6-3----||
e E e E e E e E e e




Ваше мнение



Капча