Pantera - Over And Out
Submitted By: Big_Daddy_Cool
EMail: [email protected]
Tuning: Standard (E A D G B E)heres the intro to over and out its kinda tricky but
damn Dimebag Darrell can play like a mother fuckerE|---------------------------------------------------------------------------||
B|---------------------------------------------------------------------------||
G|---------9---------9---------10---------10---------------------------------------||
D|---------9---------9---------10---------10---------------------------------------||
A|---------7---------7---------7----------7--------------------------------------||
E|-0-0-0-0---0-0-0-0---0-0-0-0----0-0-0-0----------------------------------------------------||
E|---------------------------------------------------------------------------||
B|---------------------------------------------------------------------------||
G|---------------------------------------------------------------------------||
D|---------------------------------------------------------------------------||
A|--------------10-9-7-9-7---------------------------------------------------------||
E|-8-7-8-10-8-7------------10---------------------------------------------------------||
pick the 8 on the low E after that its all hammer off
and on then pick the 10 on the A string after that all
hammer off and on then pick the 10 on the low E like i
said its a little tricky
E|---------------------------------------------------------------------------||
B|---------------------------------------------------------------------------||
G|---------9---------9---------10---------10---------------------------------------||
D|---------9---------9---------10---------10---------------------------------------||
A|---------7---------7---------7----------7--------------------------------------||
E|-0-0-0-0---0-0-0-0---0-0-0-0----0-0-0-0----------------------------------------------------||E|---------------------------------------------------------------------------||
B|---------------------------------------------------------------------------||
G|-----------------------------------------10-9-7-9-7------------------------||
D|----------------------------8-7-8-10-8-7------------10----------------------------||
A|--------------10-9-7-9-7---------------------------------------------------------||
E|-8-7-8-10-8-7------------10---------------------------------------------------------||
some more of that tricy shit pick the frist note on the
string after that hammer off and on u get the drifft
E|---------------------------------------------------------------------------||
B|---------------------------------------------------------------------------||
G|-10--8--7-----------------------------------------------------------------||
D|-10--8--7--10-9--7--4--5--2-----------------------------------------------||
A|-8---6--5--10-9--7--4--5--2-----------------------------------------------||
E|-----------8--7--5--2--3--0------------------------------------------------||


Ваше мнение



Капча